» 
 » 
Призраки



NAGART - Призраки - аккорды

Чайковский в рок-аранжировке! Очень необычно, послушай!
Тональность: 
0
Масштаб: 
100%
Прокрутка: 
0
Проще!
Аппликатуры
Нотный режим
Призраки
NAGART
[ Предположительная тональность: Dm ]

Куплет: проигрышем на табах.
Бридж: шестёрка.
Припев: восьмёрка, громче в два раза.

Вступление (x2):
6-|------------------------------------------------------------------3-------------2------------|
5-|------7---------------------5------------------3---------------------2-------------0--------|
4-|---------5---------------------4----4-------------2-----------------------0-----------------|
3-|-----------0---------------------0------------------0-------------------0---------------2---|
2-|-------------------0-------------------0------------------0---------------------------0-----|
1-|---------------0---------------------------------------0-------------------------------------|
        Gm                         Bm                  G                   C              C

Куплет:
Не виден в замке свет огней,
И в мраке полном, сотни лет грустит о ней.
Она вернется через тысячу веков,
Безвластно время перед призраками снов...


Бридж:
Gm                               Bm
Давным-давно завесил чёрным зеркала,
G                                       C       C
Проклятье видеть в отражении себя.
Gm                            Bm
И звук шагов её не слышно на земле,
G                                          C           C
Но ровно в полночь - она снова на скале.


Припев:
Gm                               Bm
Она жива, жива - кричал он в пустоту!
G                              C            C
И свет луны не разрывает темноту!
Gm
Средь черных стен,
         Bm
Он счастья не сыскал,
G                                  C           C
И как она - на веки призраком он стал!


Проигрыш (x2).
6-|------------------------------------------------------------------3-------------2-------------|
5-|------7---------------------5------------------3---------------------2-------------0---------|
4-|---------5---------------------4----4-------------2-----------------------0------------------|
3-|-----------0---------------------0------------------0-------------------0----------------2---|
2-|-------------------0--------------------0------------------0---------------------------0-----|
1-|---------------0---------------------------------------0--------------------------------------|
          Gm                       Bm                  G                   C              C


Gm
На сотни миль, над черным замком -
Bm
мрак и тлен.
G                           C                   C
На веки две души к нему попали в плен.
Gm                       Bm
И сотни лет не отпускает от себя,
G                                      C                   C
Не даст двум призракам встречаться никогда...


Припев:
Gm                               Bm
Она жива, жива - кричал он в пустоту!
G                              C            C
И свет луны не разрывает темноту!
Gm
Средь черных стен,
         Bm
Он счастья не сыскал,
G                                  C           C
И как она - на веки призраком он стал!


Финал:
6-|------------------------------------------------------------------3-------------2-------------0---------------------------|
5-|------7---------------------5------------------3---------------------2-------------0-------------------------------------|
4-|---------5---------------------4----4-------------2-----------------------0-----------------------2-------2-------------|
3-|-----------0---------------------0------------------0-------------------0---------------2-------------0-----------0-----|
2-|------------------0--------------------0------------------0---------------------------0-----------------------0----------|
1-|---------------0---------------------------------------0--------------------------------------------------------------3---|
           Gm                      Bm                  G                   C               C               Gm

NAGART - Призраки - ноты

(включить)
https://primanota.ru/nagart/prizraki.htm

Привет, гитарист!

Тебе подарок от сайта PrimaNota.ru

Забрать подарок
ВАМ ПОДАРКИ ОТ ПРОЕКТА
"ГИТАРНАЯ РЕВОЛЮЦИЯ"