» 
 » 
В небе звезды горят



Мусаев Хасан - В небе звезды горят - табы

Чайковский в рок-аранжировке! Очень необычно, послушай!
Вступление: 
D                          Hm
|-----------2-----------3----------2---0---|------------2-----------3------------2---0--|
|-------3--------3------------3-------------|------3----------3------------3--------------|
|----2----2---2----2------2----2----------|---4----4-----4----4------4----4-----------|
|-0------------------------------------------|-----------------------------------------------|
|---------------------------------------------|-2--------------------------------------------|
|---------------------------------------------|-----------------------------------------------|

G                            A
|------------3-----------5------------3---2--|------------5-----------7------------9-----|
|------4----------4------------4--------------|------5----------5------------5------------|
|---5----5-----5----5------5----5-----------|---6----6-----6----6------6----6---------|
|-----------------------------------------------|---------------------------------------------|
|-3--------------------------------------------|-7-------------------------------------------|
|-----------------------------------------------|---------------------------------------------|

Перебором
D           Hm
В небе звёзды горят,
Hm       G
Ярко светит луна.
G     A
Никому не понять,
A     D
Почему ты одна.

D         Hm
Видно наша судьба
Hm       G
Нас с тобою свела
G         A
Поигралась со мной
A (боем)
А теперь развела.

Но когда закрываю я глаза
Вижу только лишь тебя
Ты прости меня за то,
Что любил тебя шутя.

Каждый день
Думаю лишь о тебе
И скучаю лишь по тебе
Твои красивые глаза
Не забыть мне никогда.

Проигрышь (D,Hm,G,A)

аз хьуга боху - к1етта со
ези хьо сейна сей доггара
аз хьуга боху йула сейга
яла хьо суна кантира хьо

малу хьа безама хьак1ечуна
ма духа деж ма дога са
аз хьуга боху к1етта со
ези хьо сейна сей доггара

Ведь ты простишь меня за всё
И будем счастливы мы с тобой
И улетим мы в небеса
хьо суна езарна сэй догара

Перебор: бас, 3231323 2 раза на аккорд
Бой:V^V* ^^^VV

Проигрыш играется: 

D- V^V*|^^^|VV после 1полоски мизинец ставим на 1 струну 3 лад после 2полоски убираем мизинец
Hm- V^V*|^^^|VV после 1полоски средний палец ставим на 1 струну 3 лад после 2полоски убираем средний палец
G- V^V*|^^^|VV после 1полоски мизинец ставим на 1 струну 5 лад после 2полоски убираем мизинец
A- V^V*|^^^|VV после 1полоски мизинец ставим на 1 струну 7 лад после 2полоски убираем мизинец

Мусаев Хасан - В небе звезды горят - ноты

(включить)
Другие материалы по этой песне:
  • Аккорды, текст

https://primanota.ru/musaev-xasan/v-nebe-zvezdy-goryat-chords.htm

Привет, гитарист!

Тебе подарок от сайта PrimaNota.ru

Забрать подарок
ВАМ ПОДАРКИ ОТ ПРОЕКТА
"ГИТАРНАЯ РЕВОЛЮЦИЯ"