Войти:  Facebook Google Twitter Vk Yandex Mail.ru
PrimaNota.ru - самый крупный в мире бесплатный архив песенных текстов, аккордов, табулатур и нот


Murray Gold - Westminister Bridge - таба, видео

Печатать
Просмотров: 350
Лучшая metal-группа Петербурга

Westminister Bridge

  • аккорды и текст

E|-------------------------------------------------|
B|-------------------------------------------------|
G|-------------------------------------------------|
D|-------------1-0-------------1-0-------------1-0-|
A|-0-0-2-0-3-0-----0-0-2-0-3-0-----0-0-2-0-3-0-----|
E|-------------------------------------------------|

Repeat 4 times.

E|---------------------------------------------------------|
B|---------------------------------------------------------|
G|---------------------------------------------------------|
D|-------------2-2-2---1-1-1-2-1---0-0-0-0-0---------------|
A|-3-2-0-0-0-3-------0-----------2-----------3-2-0-0-0-2-0-|
E|---------------------------------------------------------|

The middle bit is not on the guitar, then play the second part twice, then the 
finish is also not on the guitar.
Добавлено: 14.09.2013
Другие материалы по этой песне:
  • Аккорды и текст

Страница создана 14.09.2013
https://primanota.ru/murray-gold/westminister-bridge-chords.htm

Привет, гитарист!

Тебе подарок от сайта PrimaNota.ru

Забрать подарок
ВАМ ПОДАРКИ ОТ ПРОЕКТА
"ГИТАРНАЯ РЕВОЛЮЦИЯ"