Войти:  Facebook Google Twitter Vk Yandex Mail.ru
PrimaNota.ru - самый крупный в мире бесплатный архив песенных текстов, аккордов, табулатур и нот


Municipal Waste - Waste Em All - бас-таба

Печатать
Поддержи лучшую metal-группу Петербурга!

Waste Em All

  • аккорды, текст

-Waste Em All
-Municipal Waste


intro:
|----------------------------------------------|
|----------------------------------------------|
|-77777777777777777777777777777777---7--7-5---5|
|-------------------------------------------7--|


|---------------------|
|---------------------|
|---7p5----7p5---5----|
|-7-----77-----5----3-|


|----------------------------------|
|----------------------------------|
|----------------------------------|
|-77777777777777777777777777777777-|


|----------------------------------------------|
|----------------------------------------------|
|-------------------5-7---------------------5--|
|-5h777-5h777-5h777-----5h777-5h777-5h777-3----|   
https://primanota.ru/municipal-waste/waste-em-all-chords.htm

Привет, гитарист!

Тебе подарок от сайта PrimaNota.ru

Забрать подарок
ВАМ ПОДАРКИ ОТ ПРОЕКТА
"ГИТАРНАЯ РЕВОЛЮЦИЯ"