Войти:  Facebook Google Twitter Vk Yandex Mail.ru
PrimaNota.ru - самый крупный в мире бесплатный архив песенных текстов, аккордов, табулатур и нот


Morgane Stapleton - You Are My Sunshine - таба, видео

Печатать
Просмотров: 53
Лучшая metal-группа Петербурга

You Are My Sunshine

  • аккорды и текст

You Are My Sunshine by Morgan and Chris Stapleton

[Intro]
e|---------------------------------------------------------------------------|
B|---------------------------------------------------3-----------------------|
G|-----------------------------------------0---------0h2---2-----2-----2-----|
D|---0---0---0---0---------0---0---0-------------0---0---0-----0-----0-------|
A|-----------------3-2---------------0-2-3---0h2-----0-----------------------|
D|-0---0---0---0-------3-0---0---0-----------------3-0-------0-----0---------|

e|---------------------------------------------------------------------------|
B|---------------3-----------------------------3-----*3----------------------|
G|-------0-------0h2-----------------0---------0h2----2----------------------|
D|-----------0---0----3-3-3----------------0---0------0----------------------|
A|-0-2-3--0h2----0----3-3-3----0-2-3---0h2-----0------0----------------------|
D|-------------3-0----3-3-3-0----------------3-0------0----------------------|
(The lyrics begin after this last strum)
(*) Also this final strum begins from the B string toward the Dropped D string)

[Chorus]
e|---------------------------------------------------------------------------|
B|----------3-----------------3--------------------------------8---8-------8-|
G|----------2-----------------2--------------------------------7---7-------7-|
D|----------0-----------------0------------0---0---------------5---5-------5-|
A|----------0-----------------0--------0h2---------------------5---5-------5-|
D|----------0-----------------0--------------3p-----0----2---4/5---5-3-3-3/5-|
("You are my sunshine, my only sunshine.            You make me happy)

e|---------------------------------------------------------------------------|
B|-8/0-----------3---3------------------8---8-------8---8/0---------3--------|
G|-7/0-----------2---2------------------7---7-------7---7/0---------2--------|
D|-5/0-----------0---0------------------5---5-------5---5/0---------0--------|
A|-5/0-----------0---0------------------5---5-------5---5/0---------0--------|
D|-5/0-----------0---0-------0-----2--4/5---5-3-3-3/5---5/0---------0--------|
(When skies are gray     You'll never know   dear       How much I love you)

e|---------------------------------------------------------------------------|
B|---------------------------------3-------2--------3-------------------3----|
G|---------------------------------2-------2--------2----------0--------2----|
D|---------------------------------0-------2--------0---------------0---0----|
A|---------5h7-5h7-5---------------0-------0--------0----0-2-3--0h2-----0----|
D|-0-2-4/5-5---5---5---------------0-------0--------0-----------------3-0----|
(Please don't take my sunshine away)

[Verse]
e|---------------------------------------------------------------------------|
B|-------*3----------------------------------------------1-------------------|
G|--------2--------------------------------------------2--2-0----------------|
D|--------0-----------0---0---0---3-0-------------------------3---0---0---0--|
A|--------0-------0h3---3---3---3------3-2----------------------0---3---3----|
D|--------0--------------------------------3-0-------------------------------|
(The other night dear,                  While I lay sleeping)

e|---------------------------------------------------------------------------|
B|--------------8---8-------8------8/0------3--------------------------------|
G|--------------7---7-------7------7/0------2--------------------------------|
D|--------------5---5-------5------5/0------0----------0---0---0---3-0-------|
A|--------------5---5-------5------5/0------0------0h3---3---3---3-----------|
D|-0--2-------4/5---5-3-3-3/5------5/0------0--------------------------------|
(I dreamed I held you            Here in my arms)

e|---------------------------------------------------------------------------|
B|------------8---8-------8---8/0---------3----------------------------------|
G|------------7---7-------7---7/0---------2----------------------------------|
D|------------5---5-------5---5/0---------0----------------------------------|
A|------------5---5-------5---5/0---------0-----------5h7-5h7-5--------------|
D|-0-----2--4/5---5-3-3-3/5---5/0---------0---0-2-4/5-5---5---5--------------|
(When   I  awoke dear      I was mistaken)
                              
e|--------------------------------------------------|
B|---3-------3-----2-2h3-2--3------------------3----|
G|---2-------2-----2-2---2--2---------0--------2----|
D|---0-------0--------------0--------------0---0----|
A|---0-------0--------------0---0-2-3--0h2-----0----|
D|---0-------0--0-----------0----------------3-0----|
(And I hung my head and I cried)

[Chorus]
e|---------------------------------------------------------------------------|
B|----------3-----------------3--------------------------------8---8-------8-|
G|----------2-----------------2--------------------------------7---7-------7-|
D|----------0-----------------0------------0---0---------------5---5-------5-|
A|----------0-----------------0--------0h2---------------------5---5-------5-|
D|----------0-----------------0--------------3p-----0----2---4/5---5-3-3-3/5-|
("You are my sunshine, my only sunshine.            You make me happy)

e|---------------------------------------------------------------------------|
B|-8/0-----------3---3------------------8---8-------8---8/0---------3--------|
G|-7/0-----------2---2------------------7---7-------7---7/0---------2--------|
D|-5/0-----------0---0------------------5---5-------5---5/0---------0--------|
A|-5/0-----------0---0------------------5---5-------5---5/0---------0--------|
D|-5/0-----------0---0-------0-----2--4/5---5-3-3-3/5---5/0---------0--------|
(When skies are gray     You'll never know   dear       How much I love you)

e|---------------------------------------------------------------------------|
B|---------------------------------3-------2--------3-------------------3----|
G|---------------------------------2-------2--------2----------0--------2----|
D|---------------------------------0-------2--------0---------------0---0----|
A|---------5h7-5h7-5---------------0-------0--------0----0-2-3--0h2-----0----|
D|-0-2-4/5-5---5---5---------------0-------0--------0-----------------3-0----|
(Please don't take my sunshine away)
    
[Solo]
e|---------------------------------------------------------------------------|
B|---------------------------------------------------------------------------|
G|------------------5555555555555555555555555555555555555555555555555--7-7---|
D|-----0-0---0---------------------------------------------------------------|
A|-0-3-----3---0-------------------------------------------------------------|
D|---------------------------------------------------------------------------|

e|---------------------------------------------------------------------------|
B|---------------------------------------------------------------------------|
G|-7-5---------5-------------------------------------------------------------|
D|-----7-5-3-7---5-3-5-3-0-----0-0---0-----------------------------0-0---0---|
A|-------------------------0-3-----3-----3/5---3/5---3/5----0----3-----3-----|
D|-------------------------------------0-----0-----0-----0--0--0-------------|

e|---------------------------------------------------------------------------|
B|---------------------------------------------------------------------------|
G|---------------------------------------------------------------------------|
D|-3-0---------0-0---0--3-0-----3-0-----3-0-----3-0-----3-0------------------|
A|-----------3-----3--------3-0-----3-0-----3-0-----3-0-----3-0--------------|
D|---------0----------------------------------------------------3-0-3-0------|

e|-----------------------------------------------------------------------------|
B|--------------8-8-8-8-8-8--11-11-13-13-13-13----3--3--8---8------------------| 
G|--------------7-7-7-7-7-7--10-10-12-12-12-12----2--2--7---7----------0-------|
D|--0-----------5-5-5-5-5-5--8--8--10-10-10-10----0--0--5---5---------------0--|
A|--------------5-5-5-5-5-5--8--8--10-10-10-10----------5---5----0-2-3--0h2----|
D|-0--0-3-0-4-0-5-5-5-5-5-5--8--8--10-10-10-10--0---0---5---5--0-------------3-0|

[Verse]  
(Lightly strumming)
e|---------------------------------------------------------------------------|
B|-------*3----3---3--3--3--3--3--3--3--3--3--3--3--3--3---------------------|
G|--------2----2---2--2--2--2--2--2--2--2--2--2--2--2--2---------------------|
D|--------0----0---0--0--0--0--0--0--0--0--0--0--0--0--0---------------------|
A|--------0----0---0--0--0--0--0--0--0--0--0--0--0--0--0----3-2--------------|
D|--------0----0---0--0--0--0--0--0--0--0--0--0--0--0--0---------3-0---------|
(I'll always love you                   And make you happy)

(Lightly strumming)
e|---------------------------------------------------------------------------|
B|-3--3---8---8-------8--8--8----8/0------3--3--3--------3--3----------------|
G|-2--2---7---7-------7--7--7----7/0------2--2--2--------2--2----------------|
D|-0--0---5---5-------5--5--5----5/0------0--0--0--------0--0----------------|
A|-0--0---5---5-------5--5--5----5/0------0--0--0--------0--0----------------|
D|-0--0-4/5---5-3-3-3/5--5--5----5/0------0--0--0-0-3-0--0--0----------------|
(If you will only               Say the same )



e|---------------------------------------------------------------------------------------|
B|-3--3---8---8-------8--8--8----8/0------------------------------3--2--2h3-2h3-2h3---3--|
G|-2--2---7---7-------7--7--7----7/0------------------------------2--2--2---2---2-----2--|
D|-0--0---5---5-------5--5--5----5/0------------------------------0--2--2---2---2-----0--|
A|-0--0---5---5-------5--5--5----5/0--------5h7-5h7-5h7-5h7-5h7---0--0--0---0---0-----0--|
D|-0--0-4/5---5-3-3-3/5--5--5----5/0--0-2-4/5---5---5---5---5-----0--0--0---0---0-----0--|
(But if you leave me    To love another            You'll regret it all       Someday)



e|---------------------------------------------------------------------------|
B|---------------------------------3-------3--------3-------------------3----|
G|---------------------------------2-------2--------2----------0--------2----|
D|---------------------------------0-------0--------0---------------0---0----|
A|---------5h7-5h7-5---------------0-------0--------0----0-2-3--0h2-----0----|
D|-0-2-4/5-5---5---5---------------0-------0--------0-----------------3-0----|
(Please don't take my sunshine away)
   
[Chorus]
e|---------------------------------------------------------------------------|
B|----------3-----------------3--------------------------------8---8-------8-|
G|----------2-----------------2--------------------------------7---7-------7-|
D|----------0-----------------0------------0---0---------------5---5-------5-|
A|----------0-----------------0--------0h2---------------------5---5-------5-|
D|----------0-----------------0--------------3p-----0----2---4/5---5-3-3-3/5-|
("You are my sunshine, my only sunshine.            You make me happy)

e|---------------------------------------------------------------------------|
B|-8/0-----------3---3------------------8---8-------8---8/0---------3--------|
G|-7/0-----------2---2------------------7---7-------7---7/0---------2--------|
D|-5/0-----------0---0------------------5---5-------5---5/0---------0--------|
A|-5/0-----------0---0------------------5---5-------5---5/0---------0--------|
D|-5/0-----------0---0-------0-----2--4/5---5-3-3-3/5---5/0---------0--------|
(When skies are gray     You'll never know   dear       How much I love you)

e|-------------------------------------------------------------|
B|---------------------------------3-------2--------3----------|
G|---------------------------------2-------2--------2----------|
D|---------------------------------0-------2--------0----------|
A|---------5h7-5h7-5---------------0-------0--------0----------|
D|-0-2-4/5-5---5---5---------------0-------0--------0----------|
Please don't take my sunshine away

[Outro]
e|---------------------------------------------------------------------------|
B|---------------------------------3-------2--------3-------------------3----|
G|---------------------------------2-------2--------2----------0--------2----|
D|---------------------------------0-------2--------0---------------0---0----|
A|---------5h7-5h7-5---------------0-------0--------0----0-2-3--0h2-----0----|
D|-0-2-4/5-5---5---5---------------0-------0--------0-----------------3-0----|
(Please don't take my sunshine away)

************************************

| x   Dead note
| g   Grace note
| (n) Ghost note
| h   Hammer-on
| p   Pull-off
| r   Release
| >   Accented note
| t   Tapping
| b   Bend
| br  Bend release
| pb  Pre-bend
| pbr Pre-bend release
| /   Slide up
| \   Slide down
| ~   Vibrato
| s   Slap
| P   Pop
| PM  Palm mute
| TR  Trill
| N   Tremolo

************************************
Добавлено: 24.06.2018
Другие материалы по этой песне:
  • Аккорды и текст

Страница создана 24.06.2018
https://primanota.ru/morgane-stapleton/you-are-my-sunshine-chords.htm

Привет, гитарист!

Тебе подарок от сайта PrimaNota.ru

Забрать подарок
ВАМ ПОДАРКИ ОТ ПРОЕКТА
"ГИТАРНАЯ РЕВОЛЮЦИЯ"