Войти:  Facebook Google Twitter Vk Yandex Mail.ru
PrimaNota.ru - самый крупный в мире бесплатный архив песенных текстов, аккордов, табулатур и нот


Monkees - The Poster - текст песни, бас-таба

Печатать
Поддержи лучшую metal-группу Петербурга!

The Poster

  • аккорды, текст

Авторы: Steve Pitts, Davy Jones

Tabbed by: 6METAL6BASSIST6
E-mail: petergriffinav@gmail.com

Tuning: EADG

G|----------------------------------------------------------------|
D|----------------------------------------------------------------|
A|5-----------5---5-----------5-----------------------------------|
E|--------------------------------3---3-------3---3---3-------3---|

G|----------------------------------------------------------------|
D|----------------------------------------------------------------|
A|5-----------5---5-----------5---------------------------2---5---|
E|--------------------------------3---3-------3---3---3-----------|

0:09

G|----------------------------------------------------------------|
D|----------------------------------------------------------------|
A|5-----------5---5---5-------5-----------------------------------|
E|--------------------------------2-----------2---2---2-------2---|

G|----------------------------------------------------------------|
D|----------------------------------------------------------------|
A|----------------------------------------------------------------|
E|3-----------3---3---3-------3---3-----------3---3---3-------3---|

G|----------------------------------------------------------------|
D|----------------------------------------------------------------|
A|--------------------------------------------------------3---4---|
E|3-----------3---3---3-------3---5-----------5---5---5-----------|

G|----------------------------------------------------------------|
D|----------------------------------------7-------7---7---7-------|
A|5-----------5---5---5---4---2-------7-------7-------------------|
E|--------------------------------5-------------------------------|

0:26

G|----------------------------------------------------------------|
D|----------------------------------------------------------------|
A|5-----------5---5---5-------5-----------------------------------|
E|--------------------------------2-----------2---2---2-------2---|

G|----------------------------------------------------------------|
D|----------------------------------------------------------------|
A|----------------------------------------------------------------|
E|3-----------3---3---3-------3---3-----------3---3---3-------3---|

G|----------------------------------------------------------------|
D|----------------------------------------------------------------|
A|------------------------------------------------------------4---|
E|3-----------3---3---3-------3---5-----------5---5---5-----------|

G|----------------------------------------------------------------|
D|----------------------------------------------------------------|
A|5-----------5---5---------------5---5-------5---5---5---5-------|
E|----------------------------5-------------------------------5---|

0:42

G|----------------------------------------------------------------|
D|----------------------------------------------------------------|
A|3---3---3-----------------------3---3---3-----------3---3---4---|
E|------------3-------3---3-------------------3-------------------|

G|----------------------------------------------------------------|
D|----------------------------------------------------------------|
A|5-----------5---5-----------5---5---5-------5---5---5---5---5---|
E|----------------------------------------------------------------|

G|----------------------------------------------------------------|
D|----------------------------------------------------------------|
A|3---3---3-----------------------3---3---3-----------------------|
E|------------3-------3---3---3---------------3-------3---3-------|

G|----------------------------------------------------------------|
D|----------------------------------------------------------------|
A|--------------------------------------------------------3---4---|
E|5-----------5---5-----------5---5-----------5-------5-----------|

0:59

G|----------------------------------------------------------------|
D|----------------------------------------------------------------|
A|5-----------5---5---5-------5-----------------------------------|
E|--------------------------------2-----------2---2---2-------2---|

G|----------------------------------------------------------------|
D|----------------------------------------------------------------|
A|----------------------------------------------------------------|
E|3-----------3---3---3-------3---3-----------3---3---3-------3---|

G|----------------------------------------------------------------|
D|----------------------------------------------------------------|
A|--------------------------------------------------------3---4---|
E|3-----------3---3---3-------3---5-----------5---5---5-----------|

G|----------------------------------------------------------------|
D|----------------------------------------7-------7---7---7-------|
A|5-----------5-------5---4---2-------7-------7---------------7---|
E|--------------------------------5-------------------------------|

1:16

G|----------------------------------------------------------------|
D|----------------------------------------------------------------|
A|5-----------5---5---5-------5-----------------------------------|
E|--------------------------------2-----------2---2---2-------2---|

G|----------------------------------------------------------------|
D|----------------------------------------------------------------|
A|------------------------------------------------------------5---|
E|3-----------3---3---3-------3---3-----------3---3---3-----------|

G|----------------------------------------------------------------|
D|----------------------------------------------------------------|
A|------------------------------------------------------------4---|
E|3-----------3---3---3-------3---5-----------5---5---5-----------|

G|------------------------------------------------7---7-----------|
D|--------------------------------------------7-----------7-------|
A|5-----------5---5---5-----------5---5-----------------------5---|
E|----------------------------5-----------------------------------|

1:33

G|----------------------------------------------------------------|
D|----------------------------------------------------------------|
A|5-----------5---5---5-------5-----------------------------------|
E|--------------------------------2-----------2---2---2-------2---|

G|----------------------------------------------------------------|
D|----------------------------------------------------------------|
A|--------------------------------------------------------5---5---|
E|3-----------3---3---3-------3---3-----------3---3---3-----------|

G|----------------------------------------------------------------|
D|----------------------------------------------------------------|
A|--------------------------------------------------------3---4---|
E|3-----------3---3---3-------3---5---------------5---5-----------|

G|------------------------------------------------7---7-----------|
D|------------------------------------7-------7-----------7-------|
A|5-----------5---5-----------5---5---------------------------5---|
E|----------------------------------------------------------------|

1:50

G|----------------------------------------------------------------|
D|----------------------------------------------------------------|
A|3---3---3-----------------------3---3---------------3---3---4---|
E|------------3-------3---3---3---------------3-------------------|

G|----------------------------------------------------------------|
D|----------------------------------------------------------------|
A|5-----------5---5---5-------3---------------------------5-------|
E|----------------------------------2-----5-----5-----5-------5---|

G|----------------------------------------------------------------|
D|----------------------------------------------------------------|
A|3---3---3-----------------------3---3---3-----------3---3---4---|
E|------------3-------3---3---3---------------3-------------------|

G|----------------------------------------------------------------|
D|----------------------------------------------------------------|
A|5-----------5---5---5-----------------------------------5-------|
E|----------------------------------2-----5-----5-----5-------5---|

2:06

G|----------------------------------------------------------------|
D|----------------------------------------------------------------|
A|3---3---3-----------------------3---3---3-----------3---3---4---|
E|------------3-------3---3---3---------------3-------------------|

G|----------------------------------------------------------------|
D|----------------------------------------------------------------|
A|5-----------5---5---5-------3---------------------------5-------|
E|----------------------------------2-----5-----5-----5-------5---|

G|--------------------------------------------------------------------|
D|--------------------------------------------------------------------| fades out here.
A|3---3---3-----------------------3---3---3-----------3---3---4---5---|
E|------------3-------3---3---3---------------3-----------------------|   
https://primanota.ru/monkees/the-poster-chords.htm

Привет, гитарист!

Тебе подарок от сайта PrimaNota.ru

Забрать подарок
ВАМ ПОДАРКИ ОТ ПРОЕКТА
"ГИТАРНАЯ РЕВОЛЮЦИЯ"