PrimaNota.ru - самый крупный в мире бесплатный архив песенных текстов, аккордов, табулатур и нот


Monkees - The Crippled Lion - текст песни, бас-таба, видео

Регистрация Запомнить меня
Войти через:  Facebook Google Twitter Vk Yandex Mail.ru

Monkees - The Crippled Lion - текст песни, бас-таба, видео

Печатать
Просмотров: 165
Лучшая metal-группа Петербурга
Tabbed by: 6METAL6BASSIST6
E-mail: petergriffinav@gmail.com

Tuning: EADG

G|------------------------------------------------|
D|5-----------------------5-----------------4-----|
A|------------5-----------------5-----7-----------|
E|------------------------------------------------|

G|------------------------------------------------------------------------------------------------|
D|5-----------------------5-----------5-----5-----3-----------------------3-----------3-----------|
A|------------5---------------------5-------------------------3-----------------------------5-----|
E|------------------------------------------------------------------------------------------------|

G|------------------------------------------------------------------------------------------------|
D|------------5-----------------------5---3-2-----------------------------------------5-----------|
A|3-----------------------3---------------------5-3---------5-6---------5-3---------3-------3-----|
E|------------------------------------------------------------------------------------------------|

0:17

G|------------------------------------------------------------------------------------------------|
D|5-----------------------9-----------------------------------------------------------------------|
A|------------5-----------------------9-----------7-----------------------7-----------------7-----|
E|------------------------------------------------------------7-----------------------7-----------|

G|------------------------------------------------------------------------------------------------|
D|7-----------------------------------7-----------5-----------------------5-----------------4-----|
A|------------7-----------5-----------------------------------5-----------------5-----7-----------|
E|------------------------------------------------------------------------------------------------|

0:31

G|------------------------------------------------------------------------------------------------|
D|5-----------------------5-----------5-----5-----3-----------------------3-----------3-----------|
A|------------5---------------------5-------------------------3-----------------------------5-----|
E|------------------------------------------------------------------------------------------------|

G|------------------------------------------------------------------------------------------------|
D|------------5-----------------------5---3-2-----------------------------------------5-----------|
A|3-----------------------3---------------------5-3---------5-6---------5-3---------3-------3-----|
E|------------------------------------------------------------------------------------------------|

0:45

G|------------------------------------------------------------------------------------------------|
D|5-----------------------9-----------------------------------------------------------9-----------|
A|------------5-----------------------9-----------7-----------------------7---------7-------7-----|
E|------------------------------------------------------------7-----------------------------------|

G|------------------------------------------------------------------------------------------------|
D|7-----------------------------------7-----------5-----------------------5-----------------------|
A|------------7-----------5-----------------------------------5-----------------------------2-----|
E|------------------------------------------------------------------------------3-----5-----------|

0:58

G|------------------------------------------------------------------------------------------------|
D|------------------------------------------------------------------------------------------------|
A|3---------3-------------5---------5-------------------------5-----------7---------7-------------|
E|------------3-----------------------5-----------3---------3-------------------------7-----------|

G|------------------------------------------------------------------------------------------------|
D|------------------------------------------------------------------------5---------5-------------|
A|3---------3-------------5---------5-------------------------5-----------------------5-----6-----|
E|------------3-----------------------5-----------3---------3-------------------------------------|

1:11

G|------------------------------------------------------------------------------------------------|
D|------------------------------------------------7---------7-------------7---------7-------------|
A|7---------7-------------7---------7-------------------------7-----------------------7-----------|
E|------------7-----------------------7-----------------------------------------------------------|

G|------------------------------------------------------------------------------------------------|
D|------------------------------------------------------------------------------------------4-----|
A|3---------3-------------3---------3-------------5---------5-------------5---------5-7-----------|
E|------------3-----------------------3-----------------------5-----------------------------------|

1:25

G|------------------------------------------------------------------------------------------------|
D|5-----------------------5-----------------5-----3-----------------------3-----------3-----------|
A|------------5-----------------------5-----------------------3-----------------------------5-----|
E|------------------------------------------------------------------------------------------------|

G|------------------------------------------------------------------------------------------------|
D|------------5-----------------------5---3-2-----------------------------------------5-----------|
A|3-----------------------3---------------------5-3---------5-6---------5-3---------3-------3-----|
E|------------------------------------------------------------------------------------------------|

1:36

G|------------------------------------------------------------------------------------------------|
D|5-----------------------9-----------------------------------------------------------------------|
A|------------5-----------------------9-----------7-----------------------7-----------------7-----|
E|------------------------------------------------------------7-----------------------7-----------|

G|------------------------------------------------------------------------------------------------|
D|7-----------------------------------7-----------5-----------------------------------------------|
A|------------7-----------5-----------------5-----------------5-----------------------------2-----|
E|------------------------------------------------------------------------3-----3-----5-----------|

1:52

G|------------------------------------------------------------------------------------------------|
D|------------------------------------------------------------------------------------------------|
A|3---------3-------------5---------5-------------------------5-----------7---------7-------------|
E|------------3-----------------------5-----------3---------3-------------------------7-----------|

G|------------------------------------------------------------------------------------------------|
D|------------------------------------------------------------------------5---------5-------------|
A|3---------3-------------5---------5-------------------------5-----------------------5-----6-----|
E|------------3-----------------------5-----------3---------3-------------------------------------|

2:05

G|------------------------------------------------------------------------------------------------|
D|------------------------------------------------7---------7-------------7---------7-------------|
A|7---------7-------------7---------7-------7-----------------7-----------------------7-----------|
E|------------7-----------------------7-----------------------------------------------------------|

G|------------------------------------------------------------------------------------------------|
D|------------------------------------------------------------------------------------------4-----|
A|3---------3-------------3---------3-------------5---------5-------------5-----5-----7-----------|
E|------------3-----------------------3-----------------------5-----------------------------------|

2:19

G|------------------------------------------------------------------------------------------------|
D|5-----------------------5-----------------5-----3-----------------------3-----------3-----------|
A|------------5-----------------------5-----------------------3-----------------------------5-----|
E|------------------------------------------------------------------------------------------------|

G|------------------------------------------------------------------------------------------------|
D|------------5-----------------------5---3-2-----------------------------------------5-----5-----|
A|3-----------------------3---------------------5-3---------5-6---------5-3---------3-------------|
E|------------------------------------------------------------------------------------------------|

2:32

G|------------------------------------------------------------------------------------------------|
D|5-----------------------9-----------------------------------------------------------------------|
A|------------5-----------------------9-----------7-----------------------7-----------------7-----|
E|------------------------------------------------------------7-----------------------7-----------|

G|------------------------------------------------------------------------------------------------|
D|7-----------------------------------7-----------5-----------------------5-----------5-----------|
A|------------7-----------5-----------------5-----------------5-----------------5-----------------|
E|------------------------------------------------------------------------------------------------|
Добавлено: 16.07.2018
Другие материалы по этой песне:
  • Аккорды и текст

Страница создана 10.11.2013
https://primanota.ru/monkees/the-crippled-lion-chords.htm
Привет, Гость.
Предлагаем пройти революционный курс по гитаре.
Подарок от PrimaNota.Ru, забирай!