Войти:  Facebook Google Twitter Vk Yandex Mail.ru
PrimaNota.ru - самый крупный в мире бесплатный архив песенных текстов, аккордов, табулатур и нот


Mojave Nomads - Creature Double Feature - таба, видео

Печатать
Просмотров: 74
Лучшая metal-группа Петербурга

Creature Double Feature

  • аккорды и текст

[Intro]
e|---------------------------------------------------------------------------|
B|--11--11--11-9-11-9--------------------------------------------------------|
G|---------------------10/8-6-8-6-8-6-8/10-8-6-------------------------------|
D|---------------------------------------------8-----------------------------|
A|---------------------------------------------------------------------------|
E|---------------------------------------------------------------------------|

e|-----------------------13--------------------------------------------------|
B|--11--11--11-9-14b-(14)---14-16--------------------------------------------|
G|--------------------------------15-15-15-15--13/18--18--13/15--------------|
D|---------------------------------------------------------------------------|
A|---------------------------------------------------------------------------|
E|---------------------------------------------------------------------------|


************************************

| /    Slide up
| (n)  Ghost note
| b    Bend

************************************
Добавлено: 21.11.2017
Другие материалы по этой песне:
  • Аккорды и текст

Страница создана 21.11.2017
https://primanota.ru/mojave-nomads/creature-double-feature-chords.htm

Привет, гитарист!

Тебе подарок от сайта PrimaNota.ru

Забрать подарок
ВАМ ПОДАРКИ ОТ ПРОЕКТА
"ГИТАРНАЯ РЕВОЛЮЦИЯ"