» 
 » 
Нить из угля



Митя Фомин - Нить из угля - аккорды

Чайковский в рок-аранжировке! Очень необычно, послушай!
Тональность: 
0
Масштаб: 
100%
Прокрутка: 
0
Проще!
Аппликатуры
Нотный режим
Нить из угля
Митя Фомин
[ Предположительная тональность: Cm ]

Вступление - проигрыш Fm Gm Cm Gm Fm Gm Fm
1|---------------------------------------------------8-6-----------------------------|
2|---8-6-----6--8--------------------------------8-------8-6--8-6-----6-8------------|
3|---------8--------5-----------10---10--8-8----------------------8-------5----------|
4|--------------------8-6-8-10-------------------------------------------------------|

1|----------------------------------------8-10-8-6-|
2|-8-6---6-8--------------------------8------------|
3|------8------5-------------10-8-10---------------|
4|-----------------8-6-8-10------------------------|

1 куплет
 Cm                   Gm
На столе свеча,многие ни раз,
   Fm                   Fsus2               Fsus4
Думали начать с этих слов рассказ.
Обгорела нить,вплоть до черноты,
Пламенем делить к небу до мечты.
Переход
 Cm                            Gm             Fm
На границе сна увижу я сквозь свет
 Припев
 Fm               Gm          Cm         Gm
Мне понятна печаль одиноких Богов,
  Fm               Gm        Fm
Созерцающих мир от нуля.
Никого мне не жаль и давно я готов,
Оборвать эту нить из угля.
Проигрыш  Fm Gm Fm
 2 куплет
Сажа выпьет из свечки всё что есть,
На качелях жизнь,на качелях смерть.
Свет колышет тень, тень слита огнём,
Завтра будет день,где ещё живём.

Митя Фомин - Нить из угля - ноты

(включить)
https://primanota.ru/mitya-fomin/nit-iz-uglya.htm

Привет, гитарист!

Тебе подарок от сайта PrimaNota.ru

Забрать подарок
ВАМ ПОДАРКИ ОТ ПРОЕКТА
"ГИТАРНАЯ РЕВОЛЮЦИЯ"