PrimaNota.ru - самый крупный в мире бесплатный архив песенных текстов, аккордов, табулатур и нот


Misc Unsigned Bands - Ponyphonic - Love Is In Bloom - аккорды и текст

Регистрация Запомнить меня
Войти через:  Facebook Google Twitter Vk Yandex Mail.ru

Misc Unsigned Bands - Ponyphonic - Love Is In Bloom - аккорды и текст

Печатать
Просмотров: 16
Лучшая metal-группа Петербурга
Ponyphonic - Love Is In Bloom
Misc Unsigned Bands
This is Ponyphonics version of Love is in Bloom, originally composed by Daniel Ingram.
 https://youtu.be/Ygo38nCimf0 - Here is the link to the music video.
Lyrics from the mlp wikia and adjusted to Ponyphonic's version of the song.

Tried to get the intro tab as close as possible to the intro piano while still sounding good.
 Legend for the tab markings in the intro tab is at the bottom of the page.
This is a much more lively version of the original song and should be played with energy.
 It's a good idea to listen to the song while playing this so you can get a feel for the chords.
You can choose to skip the intro tab and chords if you want to go directly to the singing.
 Ponyphonic's version is also in a different key than the original, so be aware of that while singing.


[Intro]

e|--11----13-----|-------------|-------10--10----13-----|----------------------|
B|--11-----------|-------11----|-11h13-11------------11-|-13--11--10--11-------|
G|--8------------|-----10------|-------12---------------|---10--10-------------|
D|------------12-|---13--------|------------------------|----------------------|
A|---------------|-13----------|------------------------|----------------------|
E|---------------|-------------|------------------------|----------------------|
                                                               
e|--11-10---------15----13--|-13--15-------|-------10--10----13-----|-----------------13--|
B|--------13-11---15--------|---------8----|-11h13-11--------11--11-|-13--11--10--13------|
G|--------------------------|--------------|-------12---------------|---10--10------------|
D|--------------------------|--------------|------------------------|---------------------|
A|--------------------------|--------------|------------------------|---------------------|
E|--------------------------|--------------|------------------------|---------------------|

Bb Eb   Gm F x3

Cm      Eb

Bb Eb   Gm F x4


[Verse 1]
Bb    Eb       Gm  F
 Love is in bloom 
         Bb     Eb      Gm      F
 A beautiful bride, a handsome groom, 
     Bb       Eb      Gm  F
 Two hearts becoming one 
   Bb        Eb      Gm  F
 A bond that cannot be undone because 


[Chorus]
 Cm         Eb
 Love is in bloom 
   Bb                   F
 A beautiful bride, a handsome groom singin' 
 Cm         Eb
 Love is in bloom 
        Bb                   F
 You're starting a life and making room 
       
 For us 


[Instrumental 1]
 Bb Eb   Gm F

 Bb Eb   Gm F x2

 Bb Eb   Ab Bb


[Verse 2]
Eb    Ab       Cm  Bb 
 Your special day 
        Eb    Ab        Cm  Bb 
 We celebrate now, the pony way 
        Eb        Ab         Cm  Bb
 Your friends are all right here 
        Eb       Ab      Cm   Bb
 Won't let these moments disappear because 


[Chorus]
 Fm         Ab
 Love is in bloom 
   Eb                 Bb
 A beautiful bride, a handsome groom 
        Fm         Ab
 I said love is in bloom 
        Eb                   Bb
 You're starting a life and making room 
       
 For us


[Instrumental 2]
 Eb Ab   Cm Bb
 
 Eb Ab   Cm Bb
 
 Ab      Fm
 
 Bb      Eb
 
 Ab      Db
 
 Eb      Bb
 
 F Bb    Bb C
 
 F Bb    Dm C


[Verse 3]
F        Bb        Dm  C
 Through joy and tears
                F      Bb      Dm  C           
 We're carried by love
                 (Love always perseveres)
      F    Bb        Dm  C
 The tiny seed has grown
   F        Bb        Dm       C
 Today, its brilliant flower's shown because


[Chorus]
 Gm         Bb
 Love is in bloom 
   F                    C
 A beautiful bride, a handsome groom 
        Gm         Bb
 I said love is in bloom 
        F                    C    
 You're starting a life and making room 
                                       
 For us

 Dm      Bb

      Gm                      C        
 Your starting your life and making room
       
 For us


[Instrumental 3]
 F Bb    Dm C

 F Bb    Dm C x3

 Gm      Bb

 Dm      C

 Gm      Bb

 F       C

 F


***************************
| h Hammer-on
***************************
Добавлено: 27.05.2018
Другие материалы по этой песне:
  • Аккорды и текст

Страница создана 27.05.2018
https://primanota.ru/misc-unsigned-bands/ponyphonic-love-is-in-bloom-chords.htm
Привет, Гость.
Предлагаем пройти революционный курс по гитаре.
Подарок от PrimaNota.Ru, забирай!