Войти:  Facebook Google Twitter Vk Yandex Mail.ru
PrimaNota.ru - самый крупный в мире бесплатный архив песенных текстов, аккордов, табулатур и нот


Misc Unsigned Bands - Plini - Heart - табы

Печатать
Лучшая metal-группа Петербурга

Plini - Heart

  • аккорды, текст

I figured I'd get the intro down because I love the sound of it and in hopes someone 
will finish the rest of the song

Standard Tuning

Intro guitar

E|---------------------------------------------------------------------------------------|
B|-----------------------0---------------------------------------------0-----------------|
G|-----------------0----------------------------------0----------------------------0-----|
D|-----------2----------------------------------6----------------------------6-----------|
A|-----3----------------------------------7----------------------7-----------------------|
E|----------------------------------9----------------------------------------------------|


Lead guitar that comes in(not sure if it's supposed to be the 10th fret on the B string because hitting the
7 sounds good too, someone should let me know)

E|-------------------------9---------------------------------------------------------|
B|-------------------10--------------------------------7----5------------------------|
G|--------------6---------------------------------6--------------6----4----1----0----|
D|---------7---------------------------------7---------------------------------------|
A|----9---------------------------------9--------------------------------------------|
E|-----------------------------------------------------------------------------------|

Started on the first solo that begins at 1:02, it sounds like it works so far:

E|--------------------------------------------------------------------------------------
B|--------------------------------------------------------------------------------------
G|--------------------------------------------------------------------------------------
D|---------------------7---9---7---9/11\0------b11--------9b7---7h9-----7/9---7/9-----
A|------------9---11---------------------------------12-------------9---7/9---7/9-------
E|---7---9-----------------------------------------------------------------------------


E|--------------------------------------------------------------------------------------------
B|--------------------------------------------------------------------------------------------
G|-------------------------------------------------------------------------9/11/13---10\9\7---
D|-----------5h7---7b-7\5----------------------------------------9---11/14--------------------
A|---9\7\5---------------------------------------9---11---12----------------------------------
E|---------------------------0h2---0h2---7---9------------------------------------------------

E|---12-------------------------------------------
B|--------11b10\8---8h10---10b11r---10\8---7/9\7--
G|------------------------------------------------
D|------------------------------------------------
A|------------------------------------------------
E|------------------------------------------------   
https://primanota.ru/misc-unsigned-bands/plini-heart-chords.htm

Привет, гитарист!

Тебе подарок от сайта PrimaNota.ru

Забрать подарок
ВАМ ПОДАРКИ ОТ ПРОЕКТА
"ГИТАРНАЯ РЕВОЛЮЦИЯ"