Войти:  Facebook Google Twitter Vk Yandex Mail.ru
PrimaNota.ru - самый крупный в мире бесплатный архив песенных текстов, аккордов, табулатур и нот


Misc Unsigned Bands - Please Head North - Will Hunting - бас-таба

Печатать
Лучшая metal-группа Петербурга

Please Head North - Will Hunting

  • аккорды, текст

Intro
Bass comes in at 0:22
G|-------------------------------------------------------|
D|-------------------------------------------------------|
A|-------------------------------------------------------|
D|-0(x16)-----5(x16)----2(x16)----5(x12)-x-x-x-x---------|

G|-------------------------------------------------------|
D|-------------------------------------------------------|
A|-------------------------------------------------------|
D|-0(x16)-----5(x16)----2(x16)----5(x16)-----------------| x2


(0:58)
G|-------------------------------------------------------|
D|-------------------------------------------------------|
A|-------------------------------------------------------|
D|----0~~~~~---------------------------------------------|


Verse 1(1:10)
G|-------------------------------------------------------|
D|-------------------------------------------------------|
A|-------------------------------------------------------|
D|-0(x16)-----5(x16)----2(x16)----5(x16)-----------------|


Pre-chorus(1:21)
G|-------------------------------------------------------|
D|-------------------------------------------------------|
A|-------------------------------------------------------|
D|-2~~~~--5~~~~-0~~~~-7~~~~------------------------------| x2


Chorus 1(1:33)
G|-------------------------------------------------------|      <
D|-------------------------------------------------------|      <
A|-------------------------------------------------------|      <   Play both of these twice
D|-9(x8)----5(x8)----0(x8)----7(x8)----------------------|      <
                                                                <
G|-------------------------------------------------------|      <
D|-------------------------------------------------------|      <
A|-------------------------------------------------------|      <  
D|-2(x8)----5(x8)----0(x8)----7(x8)----------------------|      <


Verse 2
Same as verse 1 but played twice

Pre-chorus 
Same as before

Chorus 2
Same as chorus 1 but played twice


Bridge(3:30)
G|-------------------------------------------------------|
D|-------------------------------------------------------|
A|-------------------------------------------------------|
D|----0~~~~~---------------------------------------------|

(3:48)
G|-------------------------------------------------------|
D|-------------------------------------------------------|
A|-------------------------------------------------------|
D|----0~~~~~--5~~~~--2~~~~-5~~~~-------------------------|

G|-------------------------------------------------------|
D|-------------------------------------------------------|
A|-------------------------------------------------------|
D|-2~~~~--5~~~~-0~~~~-7~~~~------------------------------| x2



Chorus 3(4:22)
G|-------------------------------------------------------|      <
D|-------------------------------------------------------|      <
A|-------------------------------------------------------|      <   Play both of these twice
D|-9(x8)----5(x8)----0(x8)----7(x8)----------------------|      <
                                                                <
G|-------------------------------------------------------|      <
D|-------------------------------------------------------|      <
A|-------------------------------------------------------|      <  
D|-2(x8)----5(x8)----0(x8)----7(x8)----------------------|      <


Outro(4:46)
G|-------------------------------------------------------|
D|-------------------------------------------------------|
A|-------------------------------------------------------|
D|-0(x16)-----5(x16)----2(x16)----5(x16)-----------------| x2


G|-------------------------------------------------------|
D|-------------------------------------------------------|
A|-------------------------------------------------------|
D|-0~~~~~~~~~~~~~~~~~~~~~~~~~~~~~~~~~~~~~~~~-------------|   
https://primanota.ru/misc-unsigned-bands/please-head-north-will-hunting-chords.htm

Привет, гитарист!

Тебе подарок от сайта PrimaNota.ru

Забрать подарок
ВАМ ПОДАРКИ ОТ ПРОЕКТА
"ГИТАРНАЯ РЕВОЛЮЦИЯ"