Войти:  Facebook Google Twitter Vk Yandex Mail.ru
PrimaNota.ru - самый крупный в мире бесплатный архив песенных текстов, аккордов, табулатур и нот


Misc Unsigned Bands - Battery - Say It - таба, видео

Печатать
Просмотров: 42
Лучшая metal-группа Петербурга

Battery - Say It

  • аккорды и текст

[Intro]
E|---------------------------------------------------------------------------|
B|---------------------------------------------------------------------------|
G|------------9---------9----------------------------------------------------|
D|--4-4--6----9----6----9----4--4--------------------------------------------|
A|--4-4--6----7----6----7----4--4--------------------------------------------|
E|--2-2--4---------4---------2--2--------------------------------------------|

[Verse]
E|---------------------------------------------------------------------------|
B|---------------------------------------------------------------------------|
G|---------4-6--9-9-9-9----4-6--4-6--9-9-9-9---------------------------------|
D|--6-6-6--4-6--9-9-9-9----4-6--4-6--9-9-9-9---------------------------------| x4
A|--6-6-6--2-4--7-7-7-7----2-4--2-4--7-7-7-7---------------------------------|
E|--4-4-4--------------------------------------------------------------------|

[Chorus]
E|-----------------------------|    
B|-----------------------------|    
G|--4-4-4--6-6-6---------------|   
D|--4-4-4--6-6-6--6-6-6-6-6-6--| x3
A|--2-2-2--4-4-4--6-6-6-6-6-6--|    
E|----------------4-4-4-4-4-4--|    

E|-----------------------------|
B|-----------------------------|
G|--4-4-4--6-6-6---------------|
D|--4-4-4--6-6-6--2------------|
A|--2-2-2--4-4-4--2------------|
E|----------------0------------|

[Verse]
E|---------------------------------------------------------------------------|
B|---------------------------------------------------------------------------|
G|---------4-6--9-9-9-9----4-6--4-6--9-9-9-9---------------------------------|
D|--6-6-6--4-6--9-9-9-9----4-6--4-6--9-9-9-9---------------------------------| x4
A|--6-6-6--2-4--7-7-7-7----2-4--2-4--7-7-7-7---------------------------------|
E|--4-4-4--------------------------------------------------------------------|

[Chorus]
E|-----------------------------|    
B|-----------------------------|    
G|--4-4-4--6-6-6---------------|   
D|--4-4-4--6-6-6--6-6-6-6-6-6--| x3
A|--2-2-2--4-4-4--6-6-6-6-6-6--|    
E|----------------4-4-4-4-4-4--|    

E|-----------------------------|
B|-----------------------------|
G|--4-4-4--6-6-6---------------|
D|--4-4-4--6-6-6--2------------|
A|--2-2-2--4-4-4--2------------|
E|----------------0------------|
    . . .  . . .

[Bridge]
E|---------------------------------------------------------------------------|
B|---------------------------------------------------------------------------|
G|-------9-------------------------------------------------------------------|
D|--6----9----6----2---------------------------------------------------------|
A|--6----7----6----2---------------------------------------------------------|
E|--4---------4----0---------------------------------------------------------|

E|---------------------------------------------------------------------------|
B|---------------------------------------------------------------------------|
G|-------------------------9-9-9-9---------9-9-9-9---------------------------|
D|--6-x-x-x-x-x-x-x-x-x-x--9-9-9-9--9--11--9-9-9-9--9--11--------------------| x4
A|--6-x-x-x-x-x-x-x-x-x-x--7-7-7-7--9--11--7-7-7-7--9--11--------------------|
E|--4-x-x-x-x-x-x-x-x-x-x-----------7--9------------7--9---------------------|

[Verse]
E|---------------------------------------------------------------------------|
B|---------------------------------------------------------------------------|
G|---------4-6--9-9-9-9----4-6--4-6--9-9-9-9---------------------------------|
D|--6-6-6--4-6--9-9-9-9----4-6--4-6--9-9-9-9---------------------------------| x4
A|--6-6-6--2-4--7-7-7-7----2-4--2-4--7-7-7-7---------------------------------|
E|--4-4-4--------------------------------------------------------------------|

[Chorus]
E|-----------------------------|    
B|-----------------------------|    
G|--4-4-4--6-6-6---------------|   
D|--4-4-4--6-6-6--6-6-6-6-6-6--| x3
A|--2-2-2--4-4-4--6-6-6-6-6-6--|    
E|----------------4-4-4-4-4-4--|    

E|-----------------------------|
B|-----------------------------|
G|--4-4-4--6-6-6---------------|
D|--4-4-4--6-6-6--2------------|
A|--2-2-2--4-4-4--2------------|
E|----------------0------------|

[Outro]
E|---------------------------------------------------------------------------||
B|---------------------------------------------------------------------------||
G|---------------------------------------------------------------------------||
D|--6------------------------------------------------------------------------||
A|--6------------------------------------------------------------------------||
E|--4------------------------------------------------------------------------||



************************************

| .  Palm mute
| x  Dead note

************************************
Добавлено: 21.02.2018
Другие материалы по этой песне:
  • Аккорды и текст

Страница создана 21.02.2018
https://primanota.ru/misc-unsigned-bands/battery-say-it-chords.htm

Привет, гитарист!

Тебе подарок от сайта PrimaNota.ru

Забрать подарок
ВАМ ПОДАРКИ ОТ ПРОЕКТА
"ГИТАРНАЯ РЕВОЛЮЦИЯ"