Войти:  Facebook Google Twitter Vk Yandex Mail.ru
PrimaNota.ru - самый крупный в мире бесплатный архив песенных текстов, аккордов, табулатур и нот


Misc Traditional - Original Graduation Songs - Graduation March - табы

Печатать
Лучшая metal-группа Петербурга

Original Graduation Songs - Graduation March

  • аккорды, текст

e|-----------0-------------------------------------------3--3--2--0----------|
B|--3--2--3----------------------------------------------------------3-------|
G|--------------4--2--0---------2-----------------7--2-----------------------|
D|-----------------------4--5------2--4--4--5--7-----------------------------|
A|---------------------------------------------------------------------------|
E|---------------------------------------------------------------------------|

e|-----------0---------------------------------------------------------------|
B|--3--2--3---------------------------------------------8--8--7--5--3--------|
G|--------------4--2--0---------2-----------------7--2-----------------------|
D|-----------------------4--5------2--4--4--5--7-----------------------------|
A|---------------------------------------------------------------------------|
E|---------------------------------------------------------------------------|   
https://primanota.ru/misc-traditional/original-graduation-songs-graduation-march-chords.htm

Привет, гитарист!

Тебе подарок от сайта PrimaNota.ru

Забрать подарок
ВАМ ПОДАРКИ ОТ ПРОЕКТА
"ГИТАРНАЯ РЕВОЛЮЦИЯ"