Войти:  Facebook Google Twitter Vk Yandex Mail.ru
PrimaNota.ru - самый крупный в мире бесплатный архив песенных текстов, аккордов, табулатур и нот


Misc Traditional - Na Wojtusia - табы

Печатать
Лучшая metal-группа Петербурга

Na Wojtusia

  • аккорды, текст

[Verse]
   Am                                                                      E
e|--0--------|--1--------|--5--------|--0--------|--0--------|--1--------|-----------|-----------|
B|-----------|-----------|-----5-----|-----------|-----------|-----------|--0--------|--0--------|
G|-----2-----|-----2-----|--------5--|-----2-----|-----2-----|-----2-----|-----1-----|-----1-----|
D|--------2--|--------2--|-----------|--------2--|--------2--|--------2--|--------2--|--------2--|
A|--0--------|-----------|--0--------|-----------|--0--------|-----------|-----------|-----------|
E|-----------|-----------|-----------|-----------|-----------|-----------|--0--------|-----------|

                                                                           Am
e|-----------|--0--------|--7-----5--|--4-----1--|--0--------|-----------|-----------|-----------|
B|--3--------|-----------|-----0-----|-----0-----|--------3--|--1-----0--|-----------|-----------|
G|-----1-----|-----1-----|-----------|-----------|-----1-----|-----1-----|--2--------|-----------|
D|--------2--|--------2--|-----------|-----------|-----------|-----------|-----2-----|-----------|
A|-----------|-----------|-----------|-----------|-----------|-----------|--0-----3--|--0--------|
E|--0--------|-----------|--0--------|-----------|--0--------|-----------|-----------|-----------|   
https://primanota.ru/misc-traditional/na-wojtusia-chords.htm

Привет, гитарист!

Тебе подарок от сайта PrimaNota.ru

Забрать подарок
ВАМ ПОДАРКИ ОТ ПРОЕКТА
"ГИТАРНАЯ РЕВОЛЮЦИЯ"