Войти:  Facebook Google Twitter Vk Yandex Mail.ru
PrimaNota.ru - самый крупный в мире бесплатный архив песенных текстов, аккордов, табулатур и нот


Misc Television - Callan Theme - таба, видео

Печатать
Просмотров: 200
Лучшая metal-группа Петербурга

Callan Theme

  • аккорды и текст

-----------------------------------------------------------------------------
                        CALLAN THEME - Jack Trombey
-----------------------------------------------------------------------------
AKA "Girl in the Dark"
Tabbed by: Armstrong Sabian

Tuning: EADGBe

Rhythm/piano for main riff:

   Cmadd9  Adim   Fmadd9  Ddim  G7  G+  G7
e|-10-------------3---------------------------------------------------------|
B|-8-------10-----1-------3-----6---4---6-----------------------------------|
G|-8-------8------1-------1-----4---4---4-----------------------------------|
D|-10------10-----3-------3-----5---5---5-----------------------------------|
A|--------------------------------------------------------------------------|
E|--------------------------------------------------------------------------|


Main Riff (2x)                                                   On 2nd Time
e|-------------------------------------------------------------|------------|
B|-------------------------------------------------------------|------------|
G|-------------------------------------------------------------|------------|
D|----------------------------------------6--5--3-5-3-5---/6---|------------|
A|----6--5--3-5-3-5-----6--5--3-5-3-5--3---------------------2-|---6-2-/5-3-|
E|-3-----------------3-----------------------------------------|-3----------|


Bridge
         F       Cm      G#       Cm    F       Cm      C°7    G7
e|--------------------------------------------------------------------------|
B|--------------------------------------------------------------------------|
G|------------------------------------------------5--/8-7---/8-7------------|
D|---5--3--1-3---1----------------5----6--3-6-3-5---------7-----------------|
A|-3-----------3---3--------3-5-3----6--------------------------------------|
E|---------------------3-4--------------------------------------------------|

Repeat main riff, except on a trumpet

Ending
e|------------------------------------------------------------------------5-|
B|------------------------------------------------------------------------4-|
G|------------------------------------------------------------------------5-|
D|----------------------------------------6--5--3-5-3-5--3-/6--5----------5-|
A|----6--5--3-5-3-5-----6--5--3-5-3-5--3-------------------------2--/6-5--3-|
E|-3-----------------3------------------------------------------------------|


BONUS! Thames Television Jingle:

e|----------------------------|
B|--------10----11-10---------|
G|-----12----10-------10------|
D|--10-------------------10---|
A|----------------------------|
E|----------------------------|


For more tabs from secret agent films and TV:
http://www.mister8.com
Добавлено: 15.07.2012
Другие материалы по этой песне:
  • Аккорды и текст

Страница создана 15.07.2012
https://primanota.ru/misc-television/callan-theme-chords.htm

Привет, гитарист!

Тебе подарок от сайта PrimaNota.ru

Забрать подарок
ВАМ ПОДАРКИ ОТ ПРОЕКТА
"ГИТАРНАЯ РЕВОЛЮЦИЯ"