Войти:  Facebook Google Twitter Vk Yandex Mail.ru
PrimaNota.ru - самый крупный в мире бесплатный архив песенных текстов, аккордов, табулатур и нот


Misc Television - Brooklyn Nine-Nine Theme - бас-таба

Печатать
Лучшая metal-группа Петербурга

Brooklyn Nine-Nine Theme

  • аккорды, текст

Tabbed by: JimBlenderBR



( ) = Optional note



G|-------------------------|           
D|-------------------------|           
A|------------5-------5-7--|       
E|--0-3-5-6-7---5-6-7------|  

G|-------------------------|           
D|-------------------------|           
A|------------5-------5-7--|       
E|--0-3-5-6-7---5-6-7------|  

G|-----------------------------------|           
D|-----------------------------------|           
A|-----------------------------------|       
E|--0-0-0-0-0-0-0-0-3-3-3-3-3-3-3-3--|  

G|----------------|           
D|----------------|           
A|----------------|       
E|--0-0--(0-0-0)--|


__________
Tabbed by: JimBlenderBR   
https://primanota.ru/misc-television/brooklyn-nine-nine-theme-chords.htm

Привет, гитарист!

Тебе подарок от сайта PrimaNota.ru

Забрать подарок
ВАМ ПОДАРКИ ОТ ПРОЕКТА
"ГИТАРНАЯ РЕВОЛЮЦИЯ"