» 
 » 
The Witcher 3 - Wild Hunt Main Theme



Misc Computer Games - The Witcher 3 - Wild Hunt Main Theme - табы

Чайковский в рок-аранжировке! Очень необычно, послушай!
[Intro]

e|----7-5-----5---------7-5-----------------------5-7-5--------------------|
B|5-------7-8---5-3-5-------7-8-7-5-3-0-5---5-7-8-------8-7---8-7-5---0--5-|
G|--------------------------------------------------------  7-------7------|
D|-------------------------------------------------------------------------|
A|-------------------------------------------------------------------------|
E|-------------------------------------------------------------------------|

next

e|--7-55-7-10-7--------7-55-7-12-7--------7-5-------5----------7-5-----------------------|
B|5----------------3-5----------------3-5-----7-8-8---5----3-5-----7-8-7-5-3-0-5---------|
G|---------------------------------------------------------------------------------------|
D|---------------------------------------------------------------------------------------|
A|---------------------------------------------------------------------------------------|
E|---------------------------------------------------------------------------------------|   

Misc Computer Games - The Witcher 3 - Wild Hunt Main Theme - ноты

(включить)
Другие материалы по этой песне:
  • Аккорды, текст

https://primanota.ru/misc-computer-games/witcher-3-wild-hunt-main-theme-chords.htm

Привет, гитарист!

Тебе подарок от сайта PrimaNota.ru

Забрать подарок
ВАМ ПОДАРКИ ОТ ПРОЕКТА
"ГИТАРНАЯ РЕВОЛЮЦИЯ"