PrimaNota.ru - самый крупный в мире бесплатный архив песенных текстов, аккордов, табулатур и нот


Misc Computer Games - Ib Main Theme - таба, видео

Регистрация Запомнить меня
Войти через:  Facebook Google Twitter Vk Yandex Mail.ru

Misc Computer Games - Ib Main Theme - таба, видео

Печатать
Просмотров: 120
Лучшая metal-группа Петербурга
First the rhythm:

[Part 1] 
E|-------|------|------|------|------|------|------|------|
B|-------|------|------|------|------|------|------|------|
G|-------|------|------|------|------|------|------|------|
D|-----7-|----6-|----5-|----4-|----7-|----2-|1---1-|2---2-|
A|---7---|--7---|--7---|--5---|--5---|--3---|--2---|--2---|
E|-5-----|4-----|3-----|2-----|1-----|0-----|------|------|


[Part 2]
E|---------|---------|--------|--------|--------|---------|-----------10-|---|
B|---------|---------|--------|--------|--------|---------|--------10----|---|
G|---------|---------|--------|--------|--------|------12-|-----10-------|---|
D|---------|------12-|---9-12-|-----10-|--------|---------|---9----------|---|
A|---10-12-|---12----|10------|--10----|--10-12-|---10----|10------------|---|
E|-9-------|10-------|--------|8-------|9-------|10-------|--------------|12-|


LEAD:


[Part 1] 
E|--------------|------------|---------|----------|----------------|------------|-------|----|
B|--------------|------------|---------|----------|----------------|------------|-------|----|
G|------------7-|9------9----|9------9-|7------7--|----------------|------------|-------|----|
D|-----7-9-10---|-----9------|-----9---|-----7----|------7-9-10-12-|10----10----|10-9-7-|6\--|
A|---7----------|------------|---------|----------|----5-----------|---10-------|-------|----|
E|-5------------|------------|---------|----------|----------------|------------|-------|----|


[Part 2]
E|-------|-------------|----------------|-----------------------------|---|
B|-------|-------------|----------------|-----------------------------|---|
G|-------|----------12-|----------------|-----------------------------|---|
D|-11-12-|14--11-14----|15-14-12-14-15--|--12----12-12-15-15-14----12-|14-|
A|-------|-------------|----------------|-----------------------------|---|
E|-------|-------------|----------------|-----------------------------|---|

E|----------------|------------|---------|
B|----------------|------------|---------|
G|-------------12-|------------|---------|
D|-14----11-14----|15----12----|10h12/14-|
A|----------------|------------|---------|
E|----------------|------------|---------|


I hope you enjoyed this tab!

************************************
| h   Hammer-on
| p   Pull-off
| b   Bend
| /   Slide up
| \   Slide down
************************************
Добавлено: 23.05.2018
Другие материалы по этой песне:
  • Аккорды и текст

Страница создана 23.05.2018
https://primanota.ru/misc-computer-games/ib-main-theme-chords.htm
Привет, Гость.
Предлагаем пройти революционный курс по гитаре.
Подарок от PrimaNota.Ru, забирай!