Войти:  Facebook Google Twitter Vk Yandex Mail.ru
PrimaNota.ru - самый крупный в мире бесплатный архив песенных текстов, аккордов, табулатур и нот


Misc Computer Games - Donkey Kong Country 2 - Disco Train - бас-таба, видео

Печатать
Просмотров: 108
Лучшая metal-группа Петербурга

Donkey Kong Country 2 - Disco Train

  • аккорды и текст

DKC2 - Disco Train (David Wise)

Tabbed by: Ash (XxThreeCheersxX)
E-mail: burdickash@gmail.com

Tuning: Standard

I. (no bass here, but here are the roots of the chords)
G|-----------------------|
D|-----------------------|
A|-----------1~----3~----| x 4
E|-3~--------------------|

-pause-

II.
G|-------------------3---3---5-----------------------3---3---------|
D|---5---5---------------------------5---5-------------------3-----|
A|-------------1-0-1---1---3---3-1-------------1-0-1---1---------1-| x 8
E|-3---3---3-1---------------------3---3---3-1-------------1---1---|

III. (no bass)

Happy playing!

| /  slide up
| \  slide down
| h  hammer-on
| p  pull-off
| ~  vibrato
| +  harmonic
| x  Mute note
===============================================================================
Добавлено: 19.02.2018
Другие материалы по этой песне:
  • Аккорды и текст

Страница создана 19.02.2018
https://primanota.ru/misc-computer-games/donkey-kong-country-2-disco-train-chords.htm

Привет, гитарист!

Тебе подарок от сайта PrimaNota.ru

Забрать подарок
ВАМ ПОДАРКИ ОТ ПРОЕКТА
"ГИТАРНАЯ РЕВОЛЮЦИЯ"