Войти:  Facebook Google Twitter Vk Yandex Mail.ru
PrimaNota.ru - самый крупный в мире бесплатный архив песенных текстов, аккордов, табулатур и нот


Misc Computer Games - Crystalis - Overworld Theme - таба, бас-таба, видео

Печатать
Просмотров: 109
Лучшая metal-группа Петербурга

Crystalis - Overworld Theme

  • аккорды и текст
  • gtp-табы

Crystalis (NES) - Overworld theme
Tempo: 140
Gtr I (E A D G B E) - 'Squarewave 1'
Gtr II (E A D G B E) - 'Piano 1'
Gtr III (E A D G B E) - 'Squarewave 2'
Gtr IV (E A D G B E) - 'Piano 2'

 [Whole Song]
     Gtrs I, II
     E S  S  +S   E. E  S S +S  E.    E S  S  +Q   S  S Q.
e||--------------------------------|-------------------------|
B||o-------------10--8-------------|-------------------------|
G||----7-10-(10)-------10-9-(9)-7--|----7--------------------|
D||--8-----------------------------|-10---10-(10)--8-10-7----|
A||o-------------------------------|-------------------------|
E||--------------------------------|-------------------------|

   E S  S  +S   E. E  S S +S  E.   Q  Q   E  S S +E   E
e|-------------------------------|-8---------------------|
B|-------------10--8-------------|----8--11-10-8-(8)-----|
G|---7-10-(10)-------10-9-(9)-7--|-------------------10--|
D|-8-----------------------------|-----------------------|
A|-------------------------------|-----------------------|
E|-------------------------------|-----------------------|

   E S  S  +S   E. E  S S +S  E.    E S  S  +Q   S  S Q.
e|-------------------------------|-------------------------|
B|-------------10--8-------------|-------------------------|
G|---7-10-(10)-------10-9-(9)-7--|----7--------------------|
D|-8-----------------------------|-10---10-(10)--8-10-7----|
A|-------------------------------|-------------------------|
E|-------------------------------|-------------------------|

   E S  S  +S   E. E  S S +S  E.   H.       Q
e|-------------------------------|---------------|
B|-------------10--8-------------|---------------|
G|---7-10-(10)-------10-9-(9)-7--|-9-------------|
D|-8-----------------------------|---------11----|
A|-------------------------------|---------------|
E|-------------------------------|---------------|

   S S S S S E. +E   Q  E   S S S S S E.  E E E  E
e|------------------------|------------------------|
B|------------------------|-------------------8----|
G|-7-9-7-6-7-9--(9)-10--9-|-7-9-7-6-7-9--10-9---10-|
D|------------------------|------------------------|
A|------------------------|------------------------|
E|------------------------|------------------------|

   S  S S S S  E.  +E   Q  E    E E E E  E E  E E
e|---------------------------|--------------------|
B|---------------------------|---------------10-8-|
G|-9-10-9-8-9-10--(10)-10--9-|-10-9-8-9-10-9------|
D|---------------------------|--------------------|
A|---------------------------|--------------------|
E|---------------------------|--------------------|

    Q   +S  S  S  S  Q  Q    Q  +S  S S S Q   Q
e|-------------------------|---------------------|
B|-10--(10)---------10--8--|-8--(8)-------8------|
G|---------------10--------|------------9----10--|
D|----------7-10-----------|--------5-8----------|
A|-------------------------|---------------------|
E|-------------------------|---------------------|

   E E S  S Q  E S  E.   E E  S S  Q  E  S E.
e|---------------------|----------------------|
B|---------------------|--------8-10--8----8--|
G|---7-9-10-7--7-9-10--|---9-10---------10----|
D|---------------------|----------------------|
A|---------------------|----------------------|
E|---------------------|----------------------|

   E S  S  +S  E. Q  Q    E  E S  S  E  +H
e|-------------8--7-----|------8---------------|
B|-------------------8--|---11---11-10-(10)----|
G|-7-9-10-(10)----------|----------------------|
D|----------------------|----------------------|
A|----------------------|----------------------|
E|----------------------|----------------------|

   E S  S  +S  E. Q  Q     Q.    S  S  Q   Q
e|-------------8--7-----|-10----------13--12--|
B|-------------------8--|-------13-12---------|
G|-7-9-10-(10)----------|---------------------|
D|----------------------|---------------------|
A|----------------------|---------------------|
E|----------------------|---------------------|

   E S  S  +S  E. Q  Q    E  E S  S  Q   Q   E
e|-------------8--7-----|------8--------10--12-|
B|-------------------8--|---11---11-10---------|
G|-7-9-10-(10)----------|----------------------|
D|----------------------|----------------------|
A|----------------------|----------------------|
E|----------------------|----------------------|

   E  S  S  S  S  Q   E  S  E.   E  S  S  S  S  Q   E  S  E.
e|---13-13-12-10-13--13-12-10--|---13-13-12-13-15--13-12-13--|
B|-----------------------------|-----------------------------|
G|-----------------------------|-----------------------------|
D|-----------------------------|-----------------------------|
A|-----------------------------|-----------------------------|
E|-----------------------------|-----------------------------|

   E  S  S  S  E.  S  S  Q   S  S    +E   S  S  S  S  Q   E  S  E.
e|---17-17-15-----17-17-17--15----|------------------15------------|
B|------------18---------------18-|-(18)-18-18-17-18-----18-17-16--|
G|--------------------------------|--------------------------------|
D|--------------------------------|--------------------------------|
A|--------------------------------|--------------------------------|
E|--------------------------------|--------------------------------|
 |
 | Gtrs III, IV
 | E  S  S  S  E.  S  S  Q   S  S    +E   S  S  S  S  Q   E  S  E.
e|---13-13-12-10--13-13-13--12-10-|-(10)-10-10----10-12--10--------|
B|--------------------------------|------------13-----------13-12--|
G|--------------------------------|--------------------------------|
D|--------------------------------|--------------------------------|
A|--------------------------------|--------------------------------|
E|--------------------------------|--------------------------------|

    E.  S  +E   Q   Q   E   E  S  S  E.  S  E E Q
e|------------------------|---------------------------||
B|-15--14-(14)------------|---18-18-18--18-18--------o||
G|-------------17--16--15-|---------------------------||
D|------------------------|---------------------------||
A|------------------------|--------------------------o||
E|------------------------|---------------------------||
 |
 |  E.  S  +E   Q   Q   E   E  S  S  E.  S  E E Q
e|------------------------|---10-10-10--10-10---------||
B|-11--10-(10)------------|--------------------------o||
G|-------------13--12--11-|---------------------------||
D|------------------------|---------------------------||
A|------------------------|--------------------------o||
E|------------------------|---------------------------||

************************************
Duration Legend

   W    whole
   H    half
   Q    quarter
   E    8th
   S    16th
   T    32nd

************************************

| (n)  Ghost note  

************************************
Добавлено: 19.02.2018
Другие материалы по этой песне:

Страница создана 06.02.2018
https://primanota.ru/misc-computer-games/crystalis-overworld-theme-chords.htm

Привет, гитарист!

Тебе подарок от сайта PrimaNota.ru

Забрать подарок
ВАМ ПОДАРКИ ОТ ПРОЕКТА
"ГИТАРНАЯ РЕВОЛЮЦИЯ"