Войти:  Facebook Google Twitter Vk Yandex Mail.ru
PrimaNota.ru - самый крупный в мире бесплатный архив песенных текстов, аккордов, табулатур и нот


Misc Computer Games - Banjo Tooie - Banjos House Blues - бас-таба, видео

Печатать
Лучшая metal-группа Петербурга

Banjo Tooie - Banjos House Blues

  • аккорды и текст

Banjo Tooie - Banjo's House Blues (Composed by Grant Kirkhope)

Tabbed by: Ash (XxThreeCheersxX)
E-mail: burdickash@gmail.com

Tuning: B Tuning (I tabbed this out for five string, but you can transpose it if you need to)

Note: this is the melody, not the rhythm

Part I
G|---------------------------------------------------------------------|
D|---------------------------------------------------------------------|
A|-3---------3---------3---------3-------------------------------------|
E|----3-4--3----3-4--3----2-4--2----2-4--2-3-----4-3-----3-----4-3-----|
B|--------------------------------------------4-------4-----4-------4--|

G|-------------------------------------------------------------------|
D|-------------------------------------------------------------------|
A|-3---------3---------3---------3-----------------------------------|
E|----3-4--3----3-4--3----2-4--2----2-4--2---------3--------3--------|
B|-----------------------------------------4--4--6----6--4-----4--1--|

Part II
G|-----------------------------------------------------------------|
D|----3----------3-------------------------------------------------|
A|------------3----4--4--3-4--6--3-----4-3---------------3---------|
E|-1-----1--4-----------------------4-------4--1--0-1--4----6-4--3-|
B|-----------------------------------------------------------------|

G|---------------------------------------------------------|
D|----3----------3--------------------------------0--2-----|
A|------------3----4--4--3-4--6--3--3--1-------3--------3--|
E|-1-----1--4----------------------------4--1--------------|
B|---------------------------------------------------------|

Part III
G|-0-0-0-0--2-3--2-0----0-0-0-0--2-3--2-0--------------------------------------|
D|--------------------0--------------------1-0-----1-0---------------0---------|
A|----------------------------------------------1-------1----------1----3-1--0-|
E|---------------------------------------------------------3--2-3--------------|
B|-----------------------------------------------------------------------------|

G|--------------------------------------------------------------0----------------|
D|--------------------------------------------------1-3--1----3----0-------------|
A|------------3--------------------5-------4-4-4-4---------4-------------2--3----|
E|-4-4-4-4--6----6-4----6-6-6-6--8----8-6-----------------------------3----------|
B|--------------------4----------------------------------------------------------|

Happy playing!

| /  slide up
| \  slide down
| h  hammer-on
| p  pull-off
| ~  vibrato
| +  harmonic
| x  Mute note
===============================================================================   
Добавлено: 17.12.2017
Другие материалы по этой песне:
  • Аккорды и текст

Страница создана 17.12.2017
https://primanota.ru/misc-computer-games/banjo-tooie-banjos-house-blues-chords.htm

Привет, гитарист!

Тебе подарок от сайта PrimaNota.ru

Забрать подарок
ВАМ ПОДАРКИ ОТ ПРОЕКТА
"ГИТАРНАЯ РЕВОЛЮЦИЯ"