PrimaNota.ru - самый крупный в мире бесплатный архив песенных текстов, аккордов, табулатур и нот


Misc Cartoons - Sayonara Zetsubou Sensei - Neet Tsuri - таба

Регистрация Запомнить меня
Войти через:  Facebook Google Twitter Vk Yandex Mail.ru

Misc Cartoons - Sayonara Zetsubou Sensei - Neet Tsuri - таба

Печатать
Просмотров: 255
Лучшая metal-группа Петербурга
---------------------------------------------------------------------------
NEET TSURI - Ootsuki Kenji (from Sayonara Zetsubou Sensei)
---------------------------------------------------------------------------
Tabbed by: Shinsen88
Email: shinsen88@yahoo.com

Tuning: BEADGBe

This song is played in standard tuning on a 7-string. Alternately, you can
tune a 6-string to B-standard, since the high E is not used.


BEGIN WITH SLIDE
e|------|
B|------|
G|------|
D|------|
A|------|
E|------|
B|-/12\-|


MAIN RIFF
e|--------------------------------------------------------------|
B|--------------------------------------------------------------|
G|--------------------------------------------------------------|
D|--------------------------------------------------------------|
A|--------------------------------------------------------------|
E|---------5----------5-------------------5----------5------5---|
B|-0-4-3-0-3--0-4-3-0-3--0-3-4-3--0-4-3-0-3--0-4-3-0-3--0-3---3-|

e|----------------------------------------------------------------------|
B|----------------------------------------------------------------------|
G|----------------------------------------------------------------------|
D|----------------------------------------------------------------------|
A|----------------------------------------------------------------------|
E|---------5----------5-------------------5----------5------------------|
B|-0-4-3-0-3--0-4-3-0-3--0-3-4-3--0-4-3-0-3--0-4-3-0-3--3-3-3-3-3-3-3-3-|
                                                        . . . . . . . .

PRE-CHORUS
e|-------------------------|
B|-------------------------|
G|-------------------------|
D|-------------------------|
A|-------------------------|
E|-7-----7-----7-----7-----|
B|---6-5---6-5---6-5---6-5-|


CHORUS
e|------------------------------------------|
B|------------------------------------------|
G|------------------------------------------|
D|-12~--7~--9-10~---------------------------|
A|-12~--7~--9-10~--10~--10-9----10-9--------|
E|-10~--5~--7--8~--10~-------10------10-8-9-|
B|------------------8~----------------------|

e|----------------------------------------|
B|----------------------------------------|
G|----------------------------------------|
D|-12~--7~--9-10~-------------------------|
A|-12~--7~--9-10~--10~--9-10-9-8-9--------|
E|-10~--5~--7--8~--10~-------------7-9-10-|
B|------------------8~--------------------|


BRIDGE
e|--------------------------------------------------------------------------|
B|--------------------------------------------------------------------------|
G|--------------------------------------------------------------------------|
D|--------------------------------------------------------------------------|
A|-2-2-2-5-5-5-4-4-4-3-3-3-2-2-2-5-5-5-4-4-4-3-3-3--2-5-4-3-2-5-4-----------|
E|-2-2-2-5-5-5-4-4-4-3-3-3-2-2-2-5-5-5-4-4-4-3-3-3--2-5-4-3-2-5-4-----------|
B|-0-0-0-3-3-3-2-2-2-1-1-1-0-0-0-3-3-3-2-2-2-1-1-1--0-3-2-1-0-3-2-1-1-1-1-1-|
   . . . . . . . . . . . . . . . . . . . . . . . .                . . . . .

END ON
e|----|
B|----|
G|----|
D|----|
A|-2~-|
E|-2~-|
B|-0~-|


| .  palm mute
| "  tremolo pick
| *  pinch harmonic
| ~  let note ring
| /  slide up
| \  slide down
| h  hammer-on
| p  pull-off
| v  vibrato
| +  natural harmonic
| x  mute note
Добавлено: 04.07.2012
Другие материалы по этой песне:
  • Аккорды и текст

Страница создана 04.07.2012
https://primanota.ru/misc-cartoons/sayonara-zetsubou-sensei-neet-tsuri-chords.htm
Привет, Гость.
Предлагаем пройти революционный курс по гитаре.
Подарок от PrimaNota.Ru, забирай!