Войти:  Facebook Google Twitter Vk Yandex Mail.ru
PrimaNota.ru - самый крупный в мире бесплатный архив песенных текстов, аккордов, табулатур и нот


Misc Cartoons - Ost Death Note - таба, видео

Печатать
Просмотров: 97
Лучшая metal-группа Петербурга

Ost Death Note

  • аккорды и текст

Death Note - Death Note (Track 1 of OST)

Guitar 1


[Intro/Main Part]

e|------------------------------------------------------------------------------------------------|
B|------------------------------------------------------------------------------------------------|
G|---------8-------12--8----------8-------8--10----------8-------12--10----------8-------8-10-----|
D|--10--10---10------------10--10---10------------10--10---10-------------10--10---10---------10--|
A|--------------8----------------------8----------------------8-----------------------8-----------|
E|------------------------------------------------------------------------------------------------|(x4)


[More Distorted/Chorus Effect]

e|------------------------------------------------------------------------------------------------|
B|------------------------------------------------------------------------------------------------|
G|---------8-------8-10---------8------8-10-------------8-------12--10----------8-------8--10-----|
D|--10--10---10----------10--10---10--------10---10--10---10-------------10--10---10--------------|
A|--------------8--------------------8-----------------------8-----------------------8------------|
E|------------------------------------------------------------------------------------------------|

e|---------------------------------------------|
B|---------------------------------------------|
G|---------8------12--10---------8------8-10---|
D|--10--10---10-----------10--10---10--------10|
A|--------------8---------------------8--------|
E|---------------------------------------------|

e|------------------------------------------------------------------------------------------------|
B|------------------------------------------------------------------------------------------------|
G|---------8-------12--8----------8-------8--10----------8-------12--10----------8-------8-10-----|
D|--10--10---10------------10--10---10------------10--10---10-------------10--10---10---------10--| 
A|--------------8----------------------8----------------------8-----------------------8-----------|
E|------------------------------------------------------------------------------------------------|

(This part is still constantly played in the background when Guitar 2 Enters)


Guitar 2 Enters.


[Loud Part 1]

e|--------15-----------------18--15--18-------15-----------------18--15--18--|
B|-----------15-16-15----15--18--15--16----------15-16-15----15--18--16--15--|
G|--12-15-------------15-----------------12-15------------15-----------------|
D|---------------------------------------------------------------------------|
A|---------------------------------------------------------------------------|
E|---------------------------------------------------------------------------|


e|--------15-----------------18--15--18-------15-----------------------|
B|-----------15-16-15----15--18--15--16----------15-16-15----15~~~~----|
G|--12-15-------------15-----------------12-15------------15-----------|
D|---------------------------------------------------------------------|
A|---------------------------------------------------------------------|
E|---------------------------------------------------------------------|


[Loud Part 2] 
(Mega sounding string bends)

e|--15--------15--------15--------15--------18--------18--------18--------18--------|
B|--15b16b15--15b16b15--15b16b16--15b16b15--15b16b15--15b16b15--15b16b15--15b16b15--|
G|----------------------------------------------------------------------------------|
D|----------------------------------------------------------------------------------|
A|----------------------------------------------------------------------------------|
E|----------------------------------------------------------------------------------|

e|--15--------15--------15--------15--------|
B|--15b16b15--15b16b15--15b16b16--15b16b15--|
G|------------------------------------------|
D|------------------------------------------|
A|------------------------------------------|
E|------------------------------------------|

e|--------15-----------------18--15--18-------15-----------------18--15--18--|
B|-----------15-16-15----15--18--15--16----------15-16-15----15--18--16--15--|
G|--12-15-------------15-----------------12-15------------15-----------------|
D|---------------------------------------------------------------------------|
A|---------------------------------------------------------------------------|
E|---------------------------------------------------------------------------|


e|--------15-----------------18--15--18-------15-----------------------|
B|-----------15-16-15----15--18--15--16----------15-16-15----15~~~~----|
G|--12-15-------------15-----------------12-15------------15-----------|
D|---------------------------------------------------------------------|
A|---------------------------------------------------------------------|
E|---------------------------------------------------------------------|

e|--15--------15--------15--------15--------------------|
B|--15b16b15--15b16b15--15b16b16--15b16b15~~b16~~b15~~--|
G|------------------------------------------------------|
D|------------------------------------------------------|
A|------------------------------------------------------|
E|------------------------------------------------------|



************************************

| ~  Vibrato
| b  Bend

************************************
Добавлено: 27.05.2018
Другие материалы по этой песне:
  • Аккорды и текст

Страница создана 27.05.2018
https://primanota.ru/misc-cartoons/ost-death-note-chords.htm

Привет, гитарист!

Тебе подарок от сайта PrimaNota.ru

Забрать подарок
ВАМ ПОДАРКИ ОТ ПРОЕКТА
"ГИТАРНАЯ РЕВОЛЮЦИЯ"