Войти:  Facebook Google Twitter Vk Yandex Mail.ru
PrimaNota.ru - самый крупный в мире бесплатный архив песенных текстов, аккордов, табулатур и нот


Milky Chance - Flashed Junk Mind Cover By Lilly Ahlberg - табы

Печатать
Лучшая metal-группа Петербурга

Flashed Junk Mind Cover By Lilly Ahlberg

  • аккорды, текст

reference: https://www.youtube.com/watch?v=wWNAIhs8lvE


This is a really good alternative to the original song.
The arrangement was created by Lilly Ahlberg. 
The difficult part of the song is the movement of your rigth hand.
Listen to the reference carefully to learn the rigth strumming pattern. 


[Intro,Verse, Chorus]

e|-----3-----3-----2----3-----3-----3-----3-----3---|
B|-----3-----3-----3----3-----3-----3-----3-----3---|
G|-----0-----0-----2----0-----0-----0-----0-----0---|
D|--------------0-----------------------------------|
A|-------------------------------------3------------|
E|--0-----S-----------S----3-----S-----------S------|

e|-----3-----3-----2----3-----3-----3-----3-----3---|
B|-----3-----3-----3----3-----3-----3-----3-----3---|
G|-----0-----0-----2----0-----0-----0-----0-----0---|
D|--------------0-----------------------------------|
A|--------------------------------------------------|
E|--0-----S-----------S----3-----S----(3)----S------|

****************

|S Slap

***************

play this through the whole song 


Lyrics:


[Verse]

We were young souls
on the junk-yard
now we are stunned minds
full of junk-goods
but i feel your heartbeat
just like mine
i feel your heartbeat
all the time


[Chorus] 2 times:

and we were bound to the citylife
flashlights when we're falling into the night
focused on what you feel
just when you were calling her love that day


[Verse]

we were young souls
on the junk-yard
now we are stunned minds
full of junk-goods
but i feel your heartbeat
just like mine
i feel your heartbeat
all the time


[Chorus] 4 times 

and we were bound to the citylife
flashlights when we're falling into the night
focused on what you feel
just when you were calling her love that day


   
Другие композиции этого автора:
Другие материалы по этой песне:
  • Аккорды, текст

https://primanota.ru/milky-chance/flashed-junk-mind-cover-by-lilly-ahlberg-chords.htm

Привет, гитарист!

Тебе подарок от сайта PrimaNota.ru

Забрать подарок
ВАМ ПОДАРКИ ОТ ПРОЕКТА
"ГИТАРНАЯ РЕВОЛЮЦИЯ"