Войти:  Facebook Google Twitter Vk Yandex Mail.ru
PrimaNota.ru - самый крупный в мире бесплатный архив песенных текстов, аккордов, табулатур и нот


Mike Oldfield - Tubular Bells Finale - табы, видео

Печатать
Лучшая metal-группа Петербурга

Tubular Bells Finale

  • аккорды и текст

Guitar and Bass part 

(Constantly repeated)
         
                E
e|--------------------------------|
B|--------------------------------|
G|------------9-9-9-7-----6h7-----|   x4
D|--------7h9---------9-7---------|
A|--7-7-7--------------------10-9-|
E|--------------------------------|

                 F#
e|-------------------------------------|
B|-------------------------------------|
G|------------11-11-11-9------8h9------|   x2
D|--------9h11-----------11-9----------|
A|--9-9-9------------------------12-11-|
E|-------------------------------------|
          
                 E                                       
e|--------------------------------|
B|--------------------------------|
G|------------9-9-9-7-----6h7-----|   x2
D|--------7h9---------9-7---------|
A|--7-7-7--------------------10-9-|
E|--------------------------------|

                A
e|--------------------------------|
B|--------------------------------|
G|--------------------------------|   x2
D|------------7-7-7-5-----4h5-----|
A|--------5h7---------7-5---------|
E|--5-5-5---------------------8-7-|


(Melody played over the top) 
               
                               E
e|--------------------------------------------------|
B|--------------------------------------------------|
G|-------------------------13h14--13--11--------13--|
D|-13-14-------------13h14----------------14--14----|
A|--------------------------------------------------|
E|--------------------------------------------------|
                E             F#
e|--------------------------------------|
B|--------------------------------------|
G|--------13h14--13--11--------11--11---|
D|-13h14-----------------14--14--14-----|
A|--------------------------------------|
E|--------------------------------------|

            F#               E
e|----------------------------------------|
B|----------------------------------------|
G|-----11-----------13--------11----------|
D|-12-----14----12------12--12--14--9-----|
A|----------------------------------------|
E|----------------------------------------|

          E                A
e|------------------------------------------|
B|------------------------------------------|
G|-----------------13-----------------------|
D|-9--11-11/12--11------12---12------11-----|         
A|------------------------------------------|         
E|------------------------------------------|


***********************************
| /   Slide up
| h   Hummer-on
| p   Pull-off
***********************************

   
Добавлено: 13.12.2017
Другие материалы по этой песне:
  • Аккорды и текст

Страница создана 13.12.2017
https://primanota.ru/mike-oldfield/tubular-bells-finale-chords.htm

Привет, гитарист!

Тебе подарок от сайта PrimaNota.ru

Забрать подарок
ВАМ ПОДАРКИ ОТ ПРОЕКТА
"ГИТАРНАЯ РЕВОЛЮЦИЯ"