PrimaNota.ru - самый крупный в мире бесплатный архив песенных текстов, аккордов, табулатур и нот


Mickey 3d - Beauseigne - таба, видео

Регистрация Запомнить меня
Войти через:  Facebook Google Twitter Vk Yandex Mail.ru

Mickey 3d - Beauseigne - таба, видео

Печатать
Просмотров: 50
Лучшая metal-группа Петербурга
Авторы музыки: Najah El Mahmoud, Mickaël Furnon, Aurélien Joanin
Авторы текста: Mickaël Furnon
[Intro]

e|---------------------------------------------------------------------------|
B|---------------------------------------------------------------------------|
G|---------------------------------------------------------------------------|
D|-7-7-7-7-7-7-7-0-----------------5-5-5-5-5-5-5-0---------------------------|
A|-8-8-8-8-8-8-8-0-5-5-5-5-5-5-5-0-7-7-7-7-7-7-7-0-7-7-7-7-7-7-7-0-----------|
E|-----------------3-3-3-3-3-3-3-0-----------------8-8-8-8-8-8-8-0-----------|


[Verse]

      Les enfants du village            l'avaient senti pourtant
e|-0-0-0-0-0-0-0-0-0-0-0-0-0-0-0-0--|-0-0-0-0-0-0-0-0-0-0-0-0-0-0-0-0---------|
B|-3-3-3-3-3-3-3-0-3-3-3-3-3-3-3-0--|-0-0-0-0-0-0-0-0-1-1-1-1-1-1-1-0---------|
G|-2-2-2-2-2-2-2-0-0-0-0-0-0-0-0-0--|-0-0-0-0-0-0-0-0-2-2-2-2-2-2-2-0---------|
D|-0-0-0-0-0-0-0-0-0-0-0-0-0-0-0-0--|-2-2-2-2-2-2-2-0-2-2-2-2-2-2-2-0---------|
A|-----------------2-2-2-2-2-2-2-0--|-2-2-2-2-2-2-2-0-0-0-0-0-0-0-0-0---------|
E|-----------------3-3-3-3-3-3-3-0--|-0-0-0-0-0-0-0-0-------------------------|

     Les enfants pas très sages,       n'en demandaient pas tant
e|-0-0-0-0-0-0-0-0-0-0-0-0-0-0-0-0--|-0-0-0-0-0-0-0-0-0-0-0-0-0-0-0-0---------|
B|-3-3-3-3-3-3-3-0-3-3-3-3-3-3-3-0--|-0-0-0-0-0-0-0-0-1-1-1-1-1-1-1-0---------|
G|-2-2-2-2-2-2-2-0-0-0-0-0-0-0-0-0--|-0-0-0-0-0-0-0-0-2-2-2-2-2-2-2-0---------|
D|-0-0-0-0-0-0-0-0-0-0-0-0-0-0-0-0--|-2-2-2-2-2-2-2-0-2-2-2-2-2-2-2-0---------|
A|-----------------2-2-2-2-2-2-2-0--|-2-2-2-2-2-2-2-0-0-0-0-0-0-0-0-0---------|
E|-----------------3-3-3-3-3-3-3-0--|-0-0-0-0-0-0-0-0-------------------------|

       Ils ont vu que la vie,         n'était plus un cadeau
e|-0-0-0-0-0-0-0-0-0-0-0-0-0-0-0-0--|-0-0-0-0-0-0-0-0-0-0-0-0-0-0-0-0---------|
B|-3-3-3-3-3-3-3-0-3-3-3-3-3-3-3-0--|-0-0-0-0-0-0-0-0-1-1-1-1-1-1-1-0---------|
G|-2-2-2-2-2-2-2-0-0-0-0-0-0-0-0-0--|-0-0-0-0-0-0-0-0-2-2-2-2-2-2-2-0---------|
D|-0-0-0-0-0-0-0-0-0-0-0-0-0-0-0-0--|-2-2-2-2-2-2-2-0-2-2-2-2-2-2-2-0---------|
A|-----------------2-2-2-2-2-2-2-0--|-2-2-2-2-2-2-2-0-0-0-0-0-0-0-0-0---------|
E|-----------------3-3-3-3-3-3-3-0--|-0-0-0-0-0-0-0-0-------------------------|


      Et que le Père-Noël            était un vrai salaud
e|-0-0-0-0-0-0-0-0-0-0-0-0-0-0-0-0--|-0-0-0-0-0-0-0-0-0-0-0-0-0-0-0-0---------|
B|-3-3-3-3-3-3-3-0-3-3-3-3-3-3-3-0--|-0-0-0-0-0-0-0-0-1-1-1-1-1-1-1-0---------|
G|-2-2-2-2-2-2-2-0-0-0-0-0-0-0-0-0--|-0-0-0-0-0-0-0-0-2-2-2-2-2-2-2-0---------|
D|-0-0-0-0-0-0-0-0-0-0-0-0-0-0-0-0--|-2-2-2-2-2-2-2-0-2-2-2-2-2-2-2-0---------|
A|-----------------2-2-2-2-2-2-2-0--|-2-2-2-2-2-2-2-0-0-0-0-0-0-0-0-0---------|
E|-----------------3-3-3-3-3-3-3-0--|-0-0-0-0-0-0-0-0-------------------------|


[Chorus]

     Libérez les enfants,                beauseigne
e|---------------------------------|------------------------------------------|
B|---------------------------------|------------------------------------------|
G|---------------------------------|------------------------------------------|
D|---------------------------------|------------------------------------------|
A|---------------------------------|------------------------------------------|
E|-5-5-5-5-5-5-5-5-5-5-5-5-5-5-5-5-|-4-4-4-4-4-4-4-4-4-4-4-4-4-4-4-4----------|

     Certains n'ont pas dix ans,     beauseigne
e|---------------------------------|------------------------------------------|
B|---------------------------------|------------------------------------------|
G|---------------------------------|------------------------------------------|
D|---------------------------------|------------------------------------------|
A|---------------------------------|------------------------------------------|
E|-5-5-5-5-5-5-5-5-5-5-5-5-5-5-5-5-|-4-4-4-4-4-4-4-4-4-4-4-4-4-4-4-4----------|


[Verse]

e|-0-0-0-0-0-0-0-0-0-0-0-0-0-0-0-0--|-0-0-0-0-0-0-0-0-0-0-0-0-0-0-0-0---------|
B|-3-3-3-3-3-3-3-0-3-3-3-3-3-3-3-0--|-0-0-0-0-0-0-0-0-1-1-1-1-1-1-1-0---------|
G|-2-2-2-2-2-2-2-0-0-0-0-0-0-0-0-0--|-0-0-0-0-0-0-0-0-2-2-2-2-2-2-2-0---------|
D|-0-0-0-0-0-0-0-0-0-0-0-0-0-0-0-0--|-2-2-2-2-2-2-2-0-2-2-2-2-2-2-2-0---------|
A|-----------------2-2-2-2-2-2-2-0--|-2-2-2-2-2-2-2-0-0-0-0-0-0-0-0-0---------|
E|-----------------3-3-3-3-3-3-3-0--|-0-0-0-0-0-0-0-0-------------------------|


[Break]

    Qu'ils viennent d'Oradour            ou bien de Ramalah
e|-0-----------------0-------------------|-0----------------0-------------------|
B|-3-----------------3-------------------|-0----------------1-------------------|
G|-2-----------------0-------------------|-0----------------2-------------------|
D|-0-----------------0-------------------|-2----------------2-------------------|
A|-------------------2-------------------|-2----------------0-------------------|
E|-------------------3-------------------|-0------------------------------------|

    De la guerre du Kippour               ou de Santa Barbara
e|-0-----------------0-------------------|-0----------------0-------------------|
B|-3-----------------3-------------------|-0----------------1-------------------|
G|-2-----------------0-------------------|-0----------------2-------------------|
D|-0-----------------0-------------------|-2----------------2-------------------|
A|-------------------2-------------------|-2----------------0-------------------|
E|-------------------3-------------------|-0------------------------------------|

   Les enfants se ressemblent,         mais ne se remplacent pas
e|-0-0-0-0-0-0-0-0-0-0-0-0-0-0-0-0--|-0-0-0-0-0-0-0-0-0-0-0-0-0-0-0-0---------|
B|-3-3-3-3-3-3-3-0-3-3-3-3-3-3-3-0--|-0-0-0-0-0-0-0-0-1-1-1-1-1-1-1-0---------|
G|-2-2-2-2-2-2-2-0-0-0-0-0-0-0-0-0--|-0-0-0-0-0-0-0-0-2-2-2-2-2-2-2-0---------|
D|-0-0-0-0-0-0-0-0-0-0-0-0-0-0-0-0--|-2-2-2-2-2-2-2-0-2-2-2-2-2-2-2-0---------|
A|-----------------2-2-2-2-2-2-2-0--|-2-2-2-2-2-2-2-0-0-0-0-0-0-0-0-0---------|
E|-----------------3-3-3-3-3-3-3-0--|-0-0-0-0-0-0-0-0-------------------------|


     Quand ils meurent en décembre,    l'histoire se finit là
e|-0-0-0-0-0-0-0-0-0-0-0-0-0-0-0-0--|-0-0-0-0-0-0-0-0-0-0-0-0-0-0-0-0---------|
B|-3-3-3-3-3-3-3-0-3-3-3-3-3-3-3-0--|-0-0-0-0-0-0-0-0-1-1-1-1-1-1-1-0---------|
G|-2-2-2-2-2-2-2-0-0-0-0-0-0-0-0-0--|-0-0-0-0-0-0-0-0-2-2-2-2-2-2-2-0---------|
D|-0-0-0-0-0-0-0-0-0-0-0-0-0-0-0-0--|-2-2-2-2-2-2-2-0-2-2-2-2-2-2-2-0---------|
A|-----------------2-2-2-2-2-2-2-0--|-2-2-2-2-2-2-2-0-0-0-0-0-0-0-0-0---------|
E|-----------------3-3-3-3-3-3-3-0--|-0-0-0-0-0-0-0-0-------------------------|




[Chorus]

       Libérez les enfants,           beauseigne
e|---------------------------------|------------------------------------------|
B|---------------------------------|------------------------------------------|
G|---------------------------------|------------------------------------------|
D|---------------------------------|------------------------------------------|
A|---------------------------------|------------------------------------------|
E|-5-5-5-5-5-5-5-5-5-5-5-5-5-5-5-5-|-4-4-4-4-4-4-4-4-4-4-4-4-4-4-4-4----------|

      Certains n'ont pas dix ans,      beauseigne
e|---------------------------------|------------------------------------------|
B|---------------------------------|------------------------------------------|
G|---------------------------------|------------------------------------------|
D|---------------------------------|------------------------------------------|
A|---------------------------------|------------------------------------------|
E|-5-5-5-5-5-5-5-5-5-5-5-5-5-5-5-5-|-4-4-4-4-4-4-4-4-4-4-4-4-4-4-4-4----------|

   Regardez les enfants,             beauseigne
e|---------------------------------|------------------------------------------|
B|---------------------------------|------------------------------------------|
G|---------------------------------|------------------------------------------|
D|---------------------------------|------------------------------------------|
A|---------------------------------|------------------------------------------|
E|-5-5-5-5-5-5-5-5-5-5-5-5-5-5-5-5-|-7-7-7-7-7-7-7-7-7-7-7-7-7-7-7-7----------|

    Certain n'ont pas dix ans,        beauseigne
e|---------------------------------|-------------------------------------------------------|
B|---------------------------------|-------------------------------------------------------|
G|---------------------------------|-------------------------------------------------------|
D|---------------------------------|-------------------------------------------------------|
A|---------------------------------|-------------------------------------------------------|
E|-8-8-8-8-8-8-8-8-8-8-8-8-8-8-8-8-|-10-10-10-10-10-10-10-10-10-10-10-10-10-10-10-10-------|



[Outro]

e|-0-0-0-0-0-0-0-0-0-0-0-0-0-0-0-0--|-0-0-0-0-0-0-0-0-0-0-0-0-0-0-0-0---------|
B|-3-3-3-3-3-3-3-0-3-3-3-3-3-3-3-0--|-0-0-0-0-0-0-0-0-1-1-1-1-1-1-1-0---------|
G|-2-2-2-2-2-2-2-0-0-0-0-0-0-0-0-0--|-0-0-0-0-0-0-0-0-2-2-2-2-2-2-2-0---------|
D|-0-0-0-0-0-0-0-0-0-0-0-0-0-0-0-0--|-2-2-2-2-2-2-2-0-2-2-2-2-2-2-2-0---------|
A|-----------------2-2-2-2-2-2-2-0--|-2-2-2-2-2-2-2-0-0-0-0-0-0-0-0-0---------|
E|-----------------3-3-3-3-3-3-3-0--|-0-0-0-0-0-0-0-0-------------------------|

e|-0-0-0-0-0-0-0-0-3-3-3-3-3-3-3-0-|-0-0-0-0-0-0-0-0-0-0-0-0-0-0-0-0--------|
B|-3-3-3-3-3-3-3-0-5-5-5-5-5-5-5-0-|-1-1-1-1-1-1-1-0-3-3-3-3-3-3-3-0--------|
G|-2-2-2-2-2-2-2-0-4-4-4-4-4-4-4-0-|-2-2-2-2-2-2-2-0-2-2-2-2-2-2-2-0--------|
D|-0-0-0-0-0-0-0-0-----------------|-2-2-2-2-2-2-2-0-0-0-0-0-0-0-0-0--------|
A|---------------------------------|-0-0-0-0-0-0-0-0------------------------|
E|-----------------3-3-3-3-3-3-3-0-|----------------------------------------|

e|-0-0-0-0-0-0-0-0-0-0-0-0-0-0-0-0-|-0-0-0-0-0-0-0-0-0-0-0-0-0-0-0-0----|
B|-1-1-1-1-1-1-1-0-3-3-3-3-3-3-3-0-|-0-0-0-0-0-0-0-0-1-1-1-1-1-1-1-0----|
G|-2-2-2-2-2-2-2-0-0-0-0-0-0-0-0-0-|-0-0-0-0-0-0-0-0-2-2-2-2-2-2-2-0----|
D|-3-3-3-3-3-3-3-0-0-0-0-0-0-0-0-0-|-2-2-2-2-2-2-2-0-2-2-2-2-2-2-2-0----|
A|---------------0-2-2-2-2-2-2-2-0-|-2-2-2-2-2-2-2-0-0-0-0-0-0-0-0-0----|
E|-1-1-1-1-1-1-1-0-3-3-3-3-3-3-3-0-|-0-0-0-0-0-0-0-0--------------------|



************************************

| x   Dead note
| g   Grace note
| (n) Ghost note
| h   Hammer-on
| p   Pull-off
| r   Release
| >   Accented note
| t   Tapping
| b   Bend
| br  Bend release
| pb  Pre-bend
| pbr Pre-bend release
| /   Slide up
| \   Slide down
| ~   Vibrato
| s   Slap
| P   Pop
| PM  Palm mute
| TR  Trill
| N   Tremolo

************************************
Добавлено: 20.04.2018
Другие материалы по этой песне:
  • Аккорды и текст

Страница создана 20.04.2018
https://primanota.ru/mickey-3d/beauseigne-chords.htm
Привет, Гость.
Предлагаем пройти революционный курс по гитаре.
Подарок от PrimaNota.Ru, забирай!