Michael Kiwanuka - Hero - аккорды

Чайковский в рок-аранжировке! Очень необычно, послушай!
Тональность: 
0
Масштаб: 
100%
Прокрутка: 
0
Проще!
Аппликатуры
Нотный режим
Hero
Michael Kiwanuka
[ Предположительная тональность: G ]

Only 3 Chords are used throughout the song.
     Gm     C     G
e|----7-----5-----5----------|
B|----8-----7-----3----------|
G|----9-----7-----3----------|
D|----9-----7-----3----------|
A|----7-----5-----5----------|
E|---------------------------|



This same pattern plays through almost the entire song.
Gm Gm C C C C G G C C C C

After 2 times another guitar plays this riff that is also played several times in the song:
e|----------------------------------------------------------------------|
B|-/12--/12------8-10-8-----8-10--------/12--/12-----8-10-8----8--------|
G|-----------------------9----------------------------------9-----------|    x2
D|----------------------------------------------------------------------|
A|----------------------------------------------------------------------|
E|----------------------------------------------------------------------|


[Chorus]
Gm           C   G
Am I a hero?
C              Gm  C  G  C
Am I a hero now?

Gm           C   G
Am I a hero?
C              Gm  C  G  C
Am I a hero now?
Yeah

[Verse]
Gm             C            G
Please…don't shoot me down
 C                  Gm      C  G  C
I love you like a brother
    Gm       C     G
It's on the news again
 C                    Gm     C  G  G
I guess they killed another

[Chorus]
Gm           C   G
Am I a hero?
C            Gm  C   G   C
Am I a hero now?
Gm           C   G
Am I a hero?
C            Gm  C   G   C
Am I a hero now?

[Break]
This is the only part of the song that is different.

    G                 Gm  C
Oh, we all get told to Go alone
    G                 Gm        C
Oh, we know it's hard for sure; We know
 C
We know

[Chorus]
Gm           C   G
Am I a hero?
C            Gm  C   G   C
Am I a hero now?
Gm           C   G
To die a hero
C                      Gm   C   G   C
Is all that we know now

[Solo]
Gm           C   G
Am I a hero?
C                Gm  C   G   C
A fallen hero now?
Gm              C   G
Hear my sin Lord
C                     Gm  C   G   C
So he ain't no hero now

Gm           C   G
Am I a hero?
C                 Gm  C   G   C
My gun to reload now
Gm           C   G
A broken people
C                 Gm  C   G   C
There Go a hero now



************************************

| /  Slide up


************************************

Michael Kiwanuka - Hero - ноты

(включить)
Другие композиции этого автора:
Другие материалы по этой песне:
  • Аккорды, текст

https://primanota.ru/michael-kiwanuka/hero-chords.htm

Привет, гитарист!

Тебе подарок от сайта PrimaNota.ru

Забрать подарок
ВАМ ПОДАРКИ ОТ ПРОЕКТА
"ГИТАРНАЯ РЕВОЛЮЦИЯ"