Войти:  Facebook Google Twitter Vk Yandex Mail.ru
PrimaNota.ru - самый крупный в мире бесплатный архив песенных текстов, аккордов, табулатур и нот


Matthew Connor - Ellis Island - бас-таба, видео

Печатать
Лучшая metal-группа Петербурга

Ellis Island

  • аккорды и текст

Ellis Island by Matthew Connor
From his EP, Denouement
Tabbed by Norman


(verse one)
She left her name on Ellis Island...
Now there's no telling who she was...
He tipped his hat and paid her fare...
When she didn't have enough to board the bus...
G|-----------|-----------|-----------|----------|
D|----0-1----|2---5-3----|4---7-5----|6----7----|
A|3----------|-----------|-----------|---------8|
E|-----------|-----------|-----------|----------|

(chorus)
G|------------------|----------------|------------------|------------------|
D|------------------|------77--------|-1-1-1-1-4--1-1-1-|------------------|
A|-8-8-8-8--8-8-8-8-|--------------6-|------------------|-8-8-8-8--8-8-8-8-|
E|6--------6--------|----------------|2-----------------|6--------6--------|

(instrumental interlude)
G|------------------|------------------|------------------|------------------|
D|------------------|-5-5-5-5--5-5-5-5-|-3-3-3-3--3-3-3-3-|------------------|
A|-8-8-8-8--8-8-8-8-|3--------3--------|3--------3--------|-8-8-8-8--8-8-8-8-|
E|6--------6--------|------------------|------------------|6--------6--------|

G|------3------|--------------|
D|5---5------4-|3--4--5----5--|
A|---------3---|---------5----|
E|-------------|--------------|

(verse two)
G|--------------|--------------|--------------|--------------|
D|5--55--4--44--|3--4--5--55--0|-------1--11--|--------------|
A|--------------|--------------|3--33---------|1--11--1--11--|
E|--------------|--------------|--------------|--------------|

G|----------------|----------------|----------------|-----------------|
D|-------0-1--11--|2--22--5-3--33--|4--44--7-5--55--|8----------------|
A|3--33-----------|----------------|----------------|----6-7-8---8--8-|
E|----------------|----------------|----------------|---6-------8-----|

(chorus)
G|------------------|----------------|------------------|------------------|
D|------------------|----------------|-1-1-1-1--1-1-1-1-|------------------|
A|-8-8-8-8--8-8-8-8-|--------------6-|------------------|-8-8-8-8--8-8-8-8-|
E|6--------6--------|----------------|2--------2--------|6--------6--------|

(instrumental interlude)
G|------------------|------------------|------------------|------------------|
D|------------------|-5-5-5-5--5-5-5-5-|-3-3-3-3--3-3-3-3-|------------------|
A|-8-8-8-8--8-8-8-8-|3--------3--------|3--------3--------|-8-8-8-8--8-8-8-8-|
E|6--------6--------|------------------|------------------|6--------6--------|

(break)
G|------------------|
D|------------------|
A|---8--8-----8---5-|
E|6--------6----6---|

(verse three)
G|--------------|------------|-------------|-------------3---3/|5------------|------------|
D|-----5-3--3-7-|8--7--5-----|-------------|----3-5--3-5---5---|---8---------|---7--5-----|
A|3---6---------|----------5-|3---6-8---4p3|1------------------|-----8--6--5-|---------5--|
E|--------------|------------|-------------|-------------------|-------------|6-----------|

G|--------------|-------------|
D|4-----3-4--3--|1----1-------|
A|----4---------|---1---------|
E|--------------|-------------|
Добавлено: 03.04.2016
Другие материалы по этой песне:
  • Аккорды и текст

Страница создана 03.04.2016
https://primanota.ru/matthew-connor/ellis-island-chords.htm

Привет, гитарист!

Тебе подарок от сайта PrimaNota.ru

Забрать подарок
ВАМ ПОДАРКИ ОТ ПРОЕКТА
"ГИТАРНАЯ РЕВОЛЮЦИЯ"