Войти:  Facebook Google Twitter Vk Yandex Mail.ru
PrimaNota.ru - самый крупный в мире бесплатный архив песенных текстов, аккордов, табулатур и нот


Matt Charleston - Miss A City Run - табы, видео

Печатать
Просмотров: 83
Лучшая metal-группа Петербурга

Miss A City Run

  • аккорды и текст

Written by Matt Charleston (2015)
Produced by MJC Productions Inc. (2015)
Go To: https://soundcloud.com/matt_charleston_mjcproductionsinc/miss-a-city-run to listen to track

[Intro]

e|---------------------------------------------------------------------------|
B|---------------------------------------------------------------------------|
G|-7---------4---------5----7---------4-----0-0------------------------------|
D|---9---------5-----4--------9---------5---4---4--0------(repeat)-----------|
A|-7---7pm---3-----5--------7---7pm---3--------------------------------------|
E|----------------3-3---x------------------3--3----0-------------------------|


[Verse 1]

e|---------------------------------------------------------------------------|
B|---------------------------------------------------------------------------|
G|-7---------4---------5----7---------4-----0-0------------------------------|
D|---9---------5-----4--------9---------5---4---4--0------(repeat)-----------|
A|-7---7pm---3-----5--------7---7pm---3--------------------------------------|
E|----------------3-3---x------------------3--3----0-------------------------|

(Some like it high in the mountains....)

[Chorus]

e|--------0----------------------------------------------------------------------|
B|-------------------------0-----------------------------------------------------|
G|-----4----4---4----------0---0---0---------------------------------------------|
D|--5---5--------5--------4-4----4--------(repeat)-------------------------------|
A|-3-t3--t3---t3---3-----5-------------------------------------------------------|
E|----------------------3--------------------------------------------------------|

e|---------------------------------------------------------------------------|
B|---------------------------------------------------------------------------|
G|------0-----------4------------0t0-----------------------------------------|
D|--2----2------5-t--5---------4---------------------------------------------|
A|-2--t2---t-0h3---3-------5-------------------------------------------------|
E|---------------------t-3--t3-----------------------------------------------|

[Verse 2]

e|---------------------------------------------------------------------------|
B|---------------------------------------------------------------------------|
G|-7---------4---------5----7---------4-----0-0------------------------------|
D|---9---------5-----4--------9---------5---4---4--0------(repeat twice)-----|
A|-7---7pm---3-----5--------7---7pm---3--------------------------------------|
E|----------------3-3---x------------------3--3----0-------------------------|
(Some like it flat in the country....)
(Some like it close to the water a coast....)

[Chorus]
e|--------0----------------------------------------------------------------------|
B|-------------------------0-----------------------------------------------------|
G|-----4----4---4----------0---0---0---------------------------------------------|
D|--5---5--------5--------4-4----4--------(repeat)-------------------------------|
A|-3-t3--t3---t3---3-----5-------------------------------------------------------|
E|----------------------3--------------------------------------------------------|

e|---------------------------------------------------------------------------|
B|---------------------------------------------------------------------------|
G|------0-----------4------------0t0-----------------------------------------|
D|--2----2------5-t--5---------4---------------------------------------------|
A|-2--t2---t-0h3---3-------5-------------------------------------------------|
E|---------------------t-3--t3-----------------------------------------------|

[Outro]

e|---------------------------------------------------------------------------|
B|---------------------------------------------------------------------------|
G|-7---------4---------5----7---------4-----0-0------------------------------|
D|---9---------5-----4--------9---------5---4---4--0------(repeat)-----------|
A|-7---7pm---3-----5--------7---7pm---3--------------------------------------|
E|----------------3-3---x------------------3--3----0-------------------------|



************************************

| t   Tapping

************************************
Добавлено: 22.02.2018
Другие композиции этого автора:
Другие материалы по этой песне:
  • Аккорды и текст

Страница создана 22.02.2018
https://primanota.ru/matt-charleston/miss-a-city-run-chords.htm

Привет, гитарист!

Тебе подарок от сайта PrimaNota.ru

Забрать подарок
ВАМ ПОДАРКИ ОТ ПРОЕКТА
"ГИТАРНАЯ РЕВОЛЮЦИЯ"