Войти:  Facebook Google Twitter Vk Yandex Mail.ru
PrimaNota.ru - самый крупный в мире бесплатный архив песенных текстов, аккордов, табулатур и нот


Mastodon - The Motherload - текст песни, табы, бас-таба, видео

Печатать
Просмотров: 1541
Лучшая metal-группа Петербурга

The Motherload

  • аккорды и текст
  • gtp-табы

Авторы музыки: Mastodon
Авторы текста: Mastodon
-------------------------------------------------------------------------------
                            The Motherload - Mastodon
-------------------------------------------------------------------------------
Tabbed by:
E-mail: jarredosborne123@gmail.com

Tuning: Drop C (C G C F A D)

d|----------------------------------------------------------|
A|----------------------------------------------------------|
F|----------------------------------------------------------|
C|------------------------------------------------------14--|
G|-----------12-----------------------------12----12-15-----|
C|0---12h15----15-12\10/12------0---12h15-----15------------|

d|------------------------------------0--|
A|------------------------------------6--|
F|------------------------------------7--|
C|---------------------------------------|
G|----------12-------------------8--7----|
C|0---12h15---15-12\10/12--7h8h10--------|

 
************************************

| /   slide up
| \   slide down
| h   hammer-on
| p   pull-off
| ~   vibrato
| +   harmonic
| x   Mute note
| b   Bend
| pb  Pre-bend
| br  Bend release
| pbr Pre-bend release
| brb Bend release bend

************************************
Добавлено: 21.09.2014
Другие материалы по этой песне:

Страница создана 24.07.2014
https://primanota.ru/mastodon/motherload-chords.htm

Привет, гитарист!

Тебе подарок от сайта PrimaNota.ru

Забрать подарок
ВАМ ПОДАРКИ ОТ ПРОЕКТА
"ГИТАРНАЯ РЕВОЛЮЦИЯ"