Войти:  Facebook Google Twitter Vk Yandex Mail.ru
PrimaNota.ru - самый крупный в мире бесплатный архив песенных текстов, аккордов, табулатур и нот


Martin Garrix - Termor - таба, видео

Печатать
Просмотров: 112
Лучшая metal-группа Петербурга

Termor

  • аккорды и текст

 feat Like Mike, Dimitri Vegas

E|-----------------------------------------------------------|
B|------------------7----------------------------------------|
G|-----------------------------------------------------------|
D|-7-6-5-4-4-6-7-4--------4-2--------------------------------|
A|----------------------------4-2-2-4-2-0--------------------|
E|----------------------------------------2------------------|
 
E|-----------------------------------------------------------|
B|------------------7-----------------7-4--------------------|
G|----------------------------------------6-4----------------|
D|-7-6-5-4-4-6-7-4--------4-2-----------------7--------------|
A|----------------------------4-2-2--------------------------|
E|-----------------------------------------------------------|
Добавлено: 26.05.2018
Другие композиции этого автора:
Другие материалы по этой песне:
  • Аккорды и текст

Страница создана 26.05.2018
https://primanota.ru/martin-garrix/termor-chords.htm

Привет, гитарист!

Тебе подарок от сайта PrimaNota.ru

Забрать подарок
ВАМ ПОДАРКИ ОТ ПРОЕКТА
"ГИТАРНАЯ РЕВОЛЮЦИЯ"