Войти:  Facebook Google Twitter Vk Yandex Mail.ru
PrimaNota.ru - самый крупный в мире бесплатный архив песенных текстов, аккордов, табулатур и нот


Mark Holcomb - Delay Demo - таба, видео

Печатать
Просмотров: 52
Лучшая metal-группа Петербурга

Delay Demo

  • аккорды и текст

https://www.youtube.com/watch?v=SU1b3fpOg1k 

Mark Holcomb Delay demo.

Tabbed by Blameshift.

The Original goes in D-drop but I'd prefer not to tune down my floyd guitar so this in E-standard.




e|------------------------------------------------------------------|
B|---------8/10----------6------------------------------------------|
G|-------7------------------3---------------------------------------|
D|----10-----------------------7------------------------------------|
A|--------------------------------5---------------------------------|
E|--6--------------------3------------------------------------------|

e|----------------------------------------------------0----15-------|
B|------8------------------------------------13---------------------|
G|----------10\7----------------10---12/14--------14----------------|
D|-----------------------\\\12--------------------------------------|
A|---5--------------------------------------------------------------|
E|------------------------------------------------------------------|

e|-----------------------------10/17~-------------------------------|
B|-----------------------8h10---------------------------------------|
G|----------------7h10------------------------------0---------------|
D|-----------10----------------------------------17-----------------|
A|-------8-----------------------------------15---------------------|
E|----6----------------------------------13-------------------------|

e|------------------------------------------------T------T----------|
B|-----------------------------------------------A------A-----------|
G|-------------0--------------0-----------------E------E------------|
D|---------15--------------10------------------P------P-------------|
A|-----12----------------8--------------------E------E--------------|
E|--10-----------------5---------------------R------R---------------|
Добавлено: 23.04.2018
Другие материалы по этой песне:
  • Аккорды и текст

Страница создана 23.04.2018
https://primanota.ru/mark-holcomb/delay-demo-chords.htm

Привет, гитарист!

Тебе подарок от сайта PrimaNota.ru

Забрать подарок
ВАМ ПОДАРКИ ОТ ПРОЕКТА
"ГИТАРНАЯ РЕВОЛЮЦИЯ"