Войти:  Facebook Google Twitter Vk Yandex Mail.ru
PrimaNota.ru - самый крупный в мире бесплатный архив песенных текстов, аккордов, табулатур и нот


Los Suaves - Lisa - таба, видео

Печатать
Просмотров: 86
Лучшая metal-группа Петербурга

Lisa

  • аккорды и текст

intro

e-----------------------------------------------------------
b---3-3-----------------0-------3-3------------------5------
g-------0---------0-------0---------0----------0-------0----   x2
d---------0-----2-----4-----4---------0-----2------4-----4--
a-----------0-3-----5-------------------0-3------5----------
e-0---------------------------0-----------------------------

--------------------------------

verso

e---------0--------------------------------0---------3----2-----
b-----------0-------3-------5----------------0---------3----3---
g-------0-----0-------0-------0----------0-----0--------0-----2-
d-----2---------2-------2-------4------2---------2-------------- x2
a---2--------------3------5----------2-------------3------------
e-0--------------------------------0----------------------------
necesita a alguien con quien jugar.........

e----------------------------------------------------------
b-----------7-------8-------7-----------7-------8-------10-
g---------9---9-----------9-----------9---9----------------
d-----9---------9-----------------9---------9--------------
a---7---7---------------7-------7---7----------------------
e-0---------------8---8-------0---------------8----8-10----


e---------0--------------------------------0---------3----2-----
b-----------0-------3-------5----------------0---------3----3---
g-------0-----0-------0-------0----------0-----0--------0-----2-
d-----2---------2-------2-------4------2---------2-------------- x2
a---2--------------3------5----------2-------------3------------
e-0--------------------------------0----------------------------
Vivió a la sombra de horas felices........


e--------0-------------2--------3-----2-------------5--------
b----------1--------------3-------3-----3-------------3------
g-----2------2-------4------4-------0-----2-----0-------0-----
d---2----------2---4--------------------------4-----------4--
a-0--------------2------------3-------------5----------------
e------------------------------------------------------------
un paso atrás en el tiempo ......

e-------5-------------------
b---------3-----------------
g-----------0---------------
d---4---------4-------------
a-5-------------------------
e---------------------------


-----

e-----------------------------------------------------------
b---3-3-----------------0-------3-3------------------5------
g-------0---------0-------0---------0----------0-------0----
d---------0-----2-----4-----4---------0-----2------4-----4--
a-----------0-3-----5-------------------0-3------5----------
e-0---------------------------0-----------------------------
llorando cada dia...................

e-----------------------------------------0--
b---3-3-----------------0-------3-3-------0--
g-------0---------0-------0---------0-----0--
d---------0-----2-----4-----4---------0---2--
a-----------0-3-----5-------------------0-3--
e-0---------------------------0--------------

---------------------------------------------------------

(distorsion)

e--------------
b--------------
g---4-7----6-7-
d-5-2-5-7--4-5-
a-3-----5------
e--------------


e---------7-5----------------7-8-7-5------
b-5---5-8-----8-7-3-5---5-8---------7-8---
g-----------------------------------------
d-----------------------------------------
a-----------------------------------------
e-----------------------------------------

e---7-10-8-7-5---------7-10-12-10-8-5-7--
b-8------------7-8---8-------------------
g----------------------------------------
d----------------------------------------
a----------------------------------------
e----------------------------------------

--------------------------------------------------------------

---------------------------------------------------------------------

Em            C   D
Las demás no tienen tu nombre
Em            C   D
ni tu voz ni tu mirada
Em            C   D
es una mujer tan extraña
Em                           C      D
que se peina con el viento cada madrugada.


e-----------------------------------------------------------
b---3-3-----------------0-------3-3------------------5h-----
g-------0---------0-------0---------0----------0-------0----   x2
d---------0-----2-----4-----4---------0-----2------4-----4--
a-----------0-3-----5-------------------0-3------5----------
e-0---------------------------0-----------------------------


Em                    C    D
La noche se hace con alas de cuervo
Em                    C    D
va resbalando la lluvia amiga
Em                    C    D
mirando al mar que viene de lejos
Em                    C    D
oigo en el vaso caer la bebida

Am              Bm
un solo día en la vida
C                 D                 D
vale más que un año de buenos recuerdos

Em               C D
llorando cada día
Em               C D
sufriendo cada día
Em               C D
llorando cada día
Em               C D
sufriendo cada día.

e---------7-5----------------7-8-7-5------
b-5---5-8-----8-7-3-5---5-8---------7-8---
g-----------------------------------------
d-----------------------------------------
a-----------------------------------------
e-----------------------------------------

e---7-10-8-7-5---------7-10-12-10-8-5-7--
b-8------------7-8---8-------------------
g----------------------------------------
d----------------------------------------
a----------------------------------------
e----------------------------------------

--
se repiten los mismos acordes etc
--
Hay lagrimas en su almohada
cada mañana de cada día
se oye la radio toda la noche
duerme a su lado una botella vacía.

Es inutil huir del lugar
no se puede escapar de la hora
se fue pero se ve pasar
entre la niebla con su pena sola
rompió los años de su vida
como se rompe una quiniela fallida

llorando cada día
sufriendo cada día
llorando cada día
sufriendo cada día.

e---------7-5----------------7-8-7-5------
b-5---5-8-----8-7-3-5---5-8---------7-8---
g-----------------------------------------
d-----------------------------------------
a-----------------------------------------
e-----------------------------------------

e---7-10-8-7-5---------7-10-12-10-8-5-7--
b-8------------7-8---8-------------------
g----------------------------------------
d----------------------------------------
a----------------------------------------
e----------------------------------------

e----10b-----3-2----3---2---0---0----
b------------3-3------3---3---3------
g-----------------2---------------2--
d-2-------4--------------------------
a-0-------2--------------------------
e------------------------------------

e----10b----3-2--------------------------------------------15-12--15-12--15b-
b-----------3-3------------------------------15-12--15-12-------15-----15----
g------------------------------14-12--14-12-------14-----14------------------
d-2-------4------14-12--14-12-------14-----14--------------------------------
a-0-------2-----------14-----14----------------------------------------------
e----------------------------------------------------------------------------


les debo el solo

-----------------------------------------------


    dudas reclamos o sugerencias solo escriban a mi correo

--------julianrock4ever@
  ------------------------------------------
    --------------------------------------
      ----------------------------------
         ----------------------------
           ------------------------
             --------------------
               ----------------
                  ----------
                    ------
                      --
Добавлено: 03.10.2014
Другие материалы по этой песне:
  • Аккорды и текст

Страница создана 03.10.2014
https://primanota.ru/los-suaves/lisa-chords.htm

Привет, гитарист!

Тебе подарок от сайта PrimaNota.ru

Забрать подарок
ВАМ ПОДАРКИ ОТ ПРОЕКТА
"ГИТАРНАЯ РЕВОЛЮЦИЯ"