Войти:  Facebook Google Twitter Vk Yandex Mail.ru
PrimaNota.ru - самый крупный в мире бесплатный архив песенных текстов, аккордов, табулатур и нот


Los Dynamite - Katatonic - бас-таба, видео

Печатать
Просмотров: 103
Лучшая metal-группа Петербурга

Katatonic

  • аккорды и текст

Bueno esta cancion es una de mis primeras transcripciones
esta facil espero les guste y a mis hermanos de la banda en la q toco
(bolaños, dany, javi, miky).

intro

G------------------------------------------|
D--------8-----------10-10-----------------|
A------------------------------------------|
E--6-6-6---6---8-8-8---------8----33333333-|

esta es la base de la cancion

G--------------------------------------------------|
D--------8-----------10-10-------------------------|
A--------------------------------------------------|
E--6-6-6---6---8-8-8---------8----3-3-3-3-3-0-3-0-3|


G------------------------------------------|
D-----------------------8----------10-10---|
A------------------------------------------|
E-3-3-3-3-3-3-3---6-6-6---6--8-8-8-------3-|

silencio

G------------------------------------------|
D------------------------------------------|
A------------------------------------------|
E-6666666666--101010-333333333333----------|


G------------------------------------------|
D--------8------------10-10----------------|
A------------------------------------------|
E--6-6-6---6---8-8-8---------8----33333333-|


esta facil espero le entiendan cualquier correccion a

awful0190_@
Добавлено: 03.08.2014
Другие композиции этого автора:
Другие материалы по этой песне:
  • Аккорды и текст

Страница создана 03.08.2014
https://primanota.ru/los-dynamite/katatonic-chords.htm

Привет, гитарист!

Тебе подарок от сайта PrimaNota.ru

Забрать подарок
ВАМ ПОДАРКИ ОТ ПРОЕКТА
"ГИТАРНАЯ РЕВОЛЮЦИЯ"