PrimaNota.ru - самый крупный в мире бесплатный архив песенных текстов, аккордов, табулатур и нот


Los Dynamite - Frenzy - бас-таба, видео

Регистрация Запомнить меня
Войти через:  Facebook Google Twitter Vk Yandex Mail.ru

Los Dynamite - Frenzy - бас-таба, видео

Печатать
Просмотров: 163
Лучшая metal-группа Петербурга
ps esta rola es frenzy muy sencilla pero pues tienes poner bien el ritmo

intro
entra guitarra sola despues ya entra el bajo

G------------------------------------------|
D------------------------------------------|
A--------12-12-----------------------------| x10
E--5-5-5-------1-1-1-1-6-6-----------------|

depues viene un pequeño cambio antes del precoro que va un poco mas rapido

G------------------------------------------|
D------------------------------------------|
A-------11-11-11-11------------------------| x2
E--5-5-5-5----------1-1-1-1-6-6------------|

G------------------------------------------|
D------------------------------------------|
A--------12-12-----------------------------| x2
E--5-5-5-------1-1-1-1-6-6-----------------|

precoro (just play be...)
G-----------------------------------------------|
D-----------------------------------------------|
A------------1111111111-------------------------| x2
E--555555555------------99999999999-6666666666--|

coro (oh no no help me no help me....)
G-----------------------------------------------|
D-----------------------------------------------|
A-----------------------------------------------| x5
E-5555555555-0-333-0-11111111111111111111-0-333-|

despues del primer coro entra una vez el bajo solo con el intro

G------------------------------------------
D------------------------------------------
A--------12-12----------------------------- x8
E--5-5-5-------1-1-1-1-6-6-----------------

aki cheken bien este kambio x ke kambia al precoro antes de ke guitarra
precoro
G-----------------------------------------------|
D-----------------------------------------------|
A------------1111111111-------------------------| x4
E--555555555------------99999999999-6666666666--|

coro
G-----------------------------------------------|
D-----------------------------------------------|
A-----------------------------------------------| x6
E-5555555555-0-333-0-11111111111111111111-0-333-|

ps disfruten de la cancion i encuentenle el ritmo
Добавлено: 28.11.2014
Другие материалы по этой песне:
  • Аккорды и текст

Страница создана 28.11.2014
https://primanota.ru/los-dynamite/frenzy-chords.htm
Привет, Гость.
Предлагаем пройти революционный курс по гитаре.
Подарок от PrimaNota.Ru, забирай!