Войти:  Facebook Google Twitter Vk Yandex Mail.ru
PrimaNota.ru - самый крупный в мире бесплатный архив песенных текстов, аккордов, табулатур и нот


Ling Tosite Sigure - Abnormalize - бас-таба, видео

Печатать
Лучшая metal-группа Петербурга

Abnormalize


Ling Tosite Sigure - Abnormalize

Tabbed by: XxThreeCheersxX
E-mail: burdickash@gmail.com

Tuning: Drop D

Intro (come in at 0:12)
G|------------------------------------------------------------------------------------|
D|-7/12~------------------15~--14~--\0-0-0-0-0-0-0-0----------------------------------|
A|----------13~----15~-------------------------------1-1-1-1-1-1-1-1-3333333333333333-|
D|------------------------------------------------------------------------------------|

Main Riff x 4
G|----------------|
D|----------------|
A|-5-5--5-----8\--|
D|--------8-8-----|

Verse I
G|-----------------------------------------------------------------|
D|-----------------------------------------------------------------|
A|-5-5-5-5-5-5-3-5-----------------------------------------8-8-7-7-|
D|-----------------8-8-8-8-8-8-8-7-5-5x--5-5-5-4-5-8-8-8-8---------|

G|------------------------------------------------------------12x--9x-----------|
D|---------------------------------------------------------------------10x--7x--|
A|-5-5-5-5-5-5-3-5-----8/13--13-12-12-10-10-10-10-10-10-10-10-------------------|
D|-----------------8-8----------------------------------------------------------|

G|-----------------------------------------------------------------------|
D|-----------------------------------------------------------------------|
A|-5-5x--5-5-7-7-7-8-8x--8-8-10-10-10--------------------8-7-8-10-8-7----|
D|------------------------------------8-8-8-8-8-8-8-8-10--------------10-|

G|---------------------------------------------------------------------------------------|
D|---------------------------------------------------------------------------------------|
A|-55555555-77777777-88888888-1010101010101010-------------------------------------------|
D|---------------------------------------------8888888888888888-10-10x--10-10x--10--12\\-|

G|-----------------------------|
D|----12--12--12-12--15~--14~--|
A|-13-13--13--13-13------------|
D|-----------------------------|

Pre-Chorus
G|------------------------------------------------------------------|
D|------------------------------------------------------------------|
A|-5-5-5-5-5-5-5-5-----------------------------------------8888888x-|
D|-----------------8-8-8-8-8-8-8-8-10-10-10-10-10-10-10-10----------|

G|-----14-14~-----------------|
D|-12-----12~----15-14--------|
A|---------------------15-----|
D|------------------------12\-|

Chorus I
G|-------------------------------------------------------------------------|
D|---------------------------------------------------7-5-7-----------------|
A|-----------------------------------------5-5-5-5-5-------8-8-8-8-8-8-8-8-|
D|-8-8-8-8-8-8-8-8-10-10-10-10-10-10-10-10---------------------------------|

G|-------------------------------------------------------------------------------|
D|-------------------------------------------------------------------------------|
A|-----------------------------------------5-5-3-5-7-7-5-7-8-8-121212-101010-888-|
D|-8-8-8-8-8-8-8-8-10-10-10-10-10-10-10-10---------------------------------------|

G|-------------------------------------------------------------------------|
D|-------------------------------------------------------------------------|
A|-----------------------------------------5-5-5-5-5-5-5-5-8-8-8-8-8-8-8-8-|
D|-8-8-8-8-8-8-8-8-10-10-10-10-10-10-10-10---------------------------------|

G|--------------------------------|
D|--------------------------------|
A|--------------------------------|
D|-8--8--8--8--8--8--8--8--10~----|

Main Riff x 4

Verse II
G|-----------------------------------------------------------------|
D|-----------------------------------------------------------------|
A|-5-5-5-5-5-5-3-5-----------------------------------------8-8-7-7-|
D|-----------------8-8-8-8-8-8-8-7-5-5x--5-5-5-4-5-8-8-8-8---------|

G|-------------------------------------------------------------|
D|-------------------------------------------------------------|
A|-5-5-5-5-5-5-3-5-----8/13--13-12-12-10-10-10-10-10-10-10-10x-|
D|-----------------8-8-----------------------------------------|

   P P  P  P    P P  P  P    P P  P             P P  P  P 
G|-7-7--7--7----5-5--5--5----3-3--3--/10-10-10----------------|
D|----------------------------------------------7-7--7--7-7\\-|
A|------------------------------------------------------------|
D|------------------------------------------------------------|

G|-----7------------------------------------------------------------|
D|------------------------------------------------------------------|
A|-5555-555-8888-10101010-------------------------------------------|
D|------------------------8-8-8-8-8-8-8-8-10-10x--10-10x--10x--12\\-|

Pre-Chorus II
G|---------------------------------------------------------------------------------|
D|---------------------------------15-15-15-15-14-14-------15-15-15-15-15-14-------|
A|-5~----10/12~--------------------------------------15-15-------------------15-15-|
D|---------------------------------------------------------------------------------|

G|--------5\-----------5\----|
D|---------------------------|
A|-5-5--5-------5-5--5-------|
D|---------------------------|

Chorus II
G|-------------------------------------------------------------------------|
D|---------------------------------------------------7-5-7-----------------|
A|-----------------------------------------5-5-5-5-5-------8-8-8-8-8-8-8-8-|
D|-8-8-8-8-8-8-8-8-10-10-10-10-10-10-10-10---------------------------------|

G|-------------------------------------------------------------------------------|
D|-------------------------------------------------------------------------------|
A|-----------------------------------------5-5-3-5-7-7-5-7-8-8-121212-101010-888-|
D|-8-8-8-8-8-8-8-8-10-10-10-10-10-10-10-10---------------------------------------|

G|-------------------------------------------------------------------------|
D|-------------------------------------------------------------------------|
A|-----------------------------------------5-5-5-5-5-5-5-5-8-8-8-8-8-8-8-8-|
D|-8-8-8-8-8-8-8-8-10-10-10-10-10-10-10-10---------------------------------|

G|-------------------------------|
D|-------------------------------|
A|------------------------8~----\|
D|-8-8x--8-8x--8-8-10~-----------|

G|-------------------------------------------------------------------------|
D|---------------------------------------------------7-5-7-----------------|
A|-----------------------------------------5-5-5-5-5-------8-8-8-8-8-8-8-8-|
D|-8-8-8-8-8-8-8-8-10-10-10-10-10-10-10-10---------------------------------|

G|-----------------------------------------------------------------------------------|
D|-----------------------------------------------------------------------------------|
A|-----------------------------------------5-5-3-5-7-7-5-7-88888888-1010101010101010-|
D|-8-8-8-8-8-8-8-8-10-10-10-10-10-10-10-10-------------------------------------------|

G|--------------------------------------------------------------------------------------|
D|--------------------------------------------------------------------------------------|
A|-------------------------------------5x-5x-5x-5x-8x-8x-8x-----------------------------|
D|-8x-8x-8x-8x-10-10-10-10-10-10-10-10----------------------10\--8-8-8-8-8-8-8-8-8-10\\-|

Bridge
G|-----------------------------------|
D|-----------------------------------|
A|-55555555----------55555555x-------|
D|----------88888888-----------------|

G|------------------------------|
D|------------------------------|
A|-5-5-----------------8-8---8--| x 2 
D|------8-8--8--10-10-----------|

G|---------------------------------------------------------------------------|
D|---------------------------------------------------------------------------|
A|-5-5-5-5---------------------8-8-8-8-55555555----------------------8-8-8-8-|
D|---------8-8-8-8-10-10-10-10------------------88888888-10-10-10-10---------|

G|-------------------|     G|---------------|
D|-------------------|     D|---------------|
A|-55555555----------| x 3 A|-5x--5x--5x----|
D|----------88888888-|     D|---------------|

Main Riff x 4

G|--------|
D|--------|
A|-5\\\---|
D|--------|

Outro
G|-------12-14--14--17~----\14~----14~----12~----10~--------|
D|--------------15----------12~-----------10~---------------|
A|-15-15---------------------------13~----------------------|
D|----------------------------------------------------------|

G|--------------------------------------------------------------------|
D|--------------------------------------------------------------------|
A|-5-5-5-5-5-5-5-5----------------------------------------------------|
D|-----------------8-8-8-8-8-8-8-8-1010101010101010101010101010101010-|

Happy playing! It's a tough song, but don't give up!

If you have any suggestions/corrections, leave a comment or email me!


| /  slide up
| \  slide down
| h  hammer-on
| p  pull-off
| ~  vibrato
| +  harmonic
| x  Mute note
===============================================================================   
Другие материалы по этой песне:

https://primanota.ru/ling-tosite-sigure/abnormalize-chords.htm

Привет, гитарист!

Тебе подарок от сайта PrimaNota.ru

Забрать подарок
ВАМ ПОДАРКИ ОТ ПРОЕКТА
"ГИТАРНАЯ РЕВОЛЮЦИЯ"