» 
 » 
Idgaf



LiL PEEP - Idgaf - аккорды

Бесплатный вокальный онлайн-квест VOX7
Тональность: 
0
Масштаб: 
100%
Прокрутка: 
0
Проще!
Аппликатуры
Нотный режим
Idgaf
LiL PEEP
[ Предположительная тональность: C ]

Follow link for video lesson:





  (Gm)                 (F)               (Gm)                 (F)      (C)
e|------------------------------------------------------------------0--------0-|
B|-----------1-0--1p0---------0---1--0---------------1-0-1p0-------------------|
G|---2-----2--------------2-----2------2----2------2------------2--------0-----|
D|-----2--------------------3-----------------2-------------------3--------3---|
A|-0-----0--------------------------------0-----0------------------------------|
E|----------------------1-------------------------------------1--------3-------|


e|--5-0-5-0-5-0-5-0--1---1---1---1---|
B|---------------------3---3---3---3-|
G|-----------------------------------|
D|-----------------------------------|
A|-----------------------------------|
E|-----------------------------------|

************************************

| p   Pull-off

[Chorus]
Call me on my phone, I don't pick it up
I ain't never home, I been fuckin' up
I don't even know, if I give a fuck about anything
I don't give a fuck
Call me on my phone, I don't pick it up
I been on my own, baby I been fuckin' up
I don't even know, if I give a fuck about anything
I don't give a fuck about anything

[Verse]
Ride till the wheels fall off and my heart stop
I can't feel my face but I won't stop
Can't stop, girl you know I can't stop, won't stop
Can't stop, girl you know it don't stop

[Bridge]
Fuck me when the beat drop
Baby, fuck me till my heart stop
Yeah, yuh
Fuck me when the beat drop
Baby, fuck me till my heart stop (Till my heart stop)
Bleeding out my laptop
Blood leaking out my laptop
Bleeding out my laptop
Blood leaking out my laptop
Fuck me till my heart stop

[Chorus]
Call me on my phone I don't pick it up
I been on my own, baby I been fuckin' up
I don't even know if I give a fuck about anything
I don't give a fuck
Call me on my phone, I don't pick it up
I ain't never home, I been fuckin' up
I don't even know, if I give a fuck about anything
I don't give a fuck about anything

[Verse]
Ride till the wheels fall off and my heart stop
I can't feel my face but I won't stop
Can't stop, girl you know I can't stop, won't stop
Can't stop, girl you know it don't stop


Fuck me when the beat drop
Baby, fuck me till my heart stop
Yeah, yuh
Fuck me when the beat drop
Baby, fuck me till my heart stop (Till my heart stop)
Bleeding out my laptop
Blood leaking out my laptop
Bleeding out my laptop
Blood leaking out my laptop
Fuck me till my heart stop (Fuck me till my heart stop)

LiL PEEP - Idgaf - ноты

(включить)
Другие композиции этого автора:
Другие материалы по этой песне:
  • Аккорды, текст

https://primanota.ru/lil-peep/idgaf-chords.htm

Привет, гитарист!

Тебе подарок от сайта PrimaNota.ru

Забрать подарок
ВАМ ПОДАРКИ ОТ ПРОЕКТА
"ГИТАРНАЯ РЕВОЛЮЦИЯ"