Войти:  Facebook Google Twitter Vk Yandex Mail.ru
PrimaNota.ru - самый крупный в мире бесплатный архив песенных текстов, аккордов, табулатур и нот


Lemolo - Low Halo - бас-таба, видео

Печатать
Лучшая metal-группа Петербурга

Low Halo

  • аккорды и текст

-----------------------------------------------------------------------
                           Lemolo - Low Halo
-----------------------------------------------------------------------
Tabbed by: boblentil

Tuning: Standard


Intro (0:00 to 0:28)

   1-+-2-+-3-+-4-+-1-+-2-+-3-+-4-+-1-+-2-+-3-+-4-+-1-+-2-+-3-+-4-+-
G|-----------------------------------------------------------------|
D|-----------------------------------------------------------------| 2x
A|-----------------------------------------------------------------|
E|-2---------------4---4-------------------------------------------|
B|---------------------------------4-------------------------------|


Verse (0:28 to 1:17)

   1-+-2-+-3-+-4-+-1-+-2-+-3-+-4-+-1-+-2-+-3-+-4-+-1-+-2-+-3-+-4-+-
G|-----------------------------------------------------------------|
D|-----------------------------------------------------------------| 2x
A|-----------------------------------------------------------------|
E|-2---------------4---4-------------------------------------------|
B|---------------------------------4-------------------------------|

   1-+-2-+-3-+-4-+-1-+-2-+-3-+-4-+-1-+-2-+-3-+-4-+-1-+-2-+-3-+-4-+-
G|-----------------------------------------------------------------|
D|-----------------------------------------------------------------|
A|-----------------------------------------------------------------|
E|-2---------------4---4-----------7-------------------------------|
B|-----------------------------------------------------------------|

   1-+-2-+-3-+-4-+-1-+-2-+-3-+-4-+-1-+-2-+-3-+-4-+-1-+-2-+-3-+-4-+-
G|-----------------------------------------------------------------|
D|-----------------------------------------------------------------|
A|-----------------------------------------------------------------|
E|11---------------9---------------7-------------------------------|
B|-----------------------------------------------------------------|

   1-+-2-+-3-+-4-+-1-+-2-+-3-+-4-+-1-+-2-+-3-+-4-+-1-+-2-+-3-+-4-+-
G|-----------------------------------------------------------------|
D|-----------------------------------------------------------------|
A|-----------------------------------------------------------------|
E|11---------------9-------7---7-----------------------------------|
B|---------------------------------4-------------------------------|


Chorus (1:18 to 1:47)

   1-+-2-+-3-+-4-+-1-+-2-+-3-+-4-+-1-+-2-+-3-+-4-+-1-+-2-+-3-+-4-+-
G|-----------------------------------------------------------------|
D|-----------------------------------------------------------------| 2x
A|-----------------------------------------------------------------|
E|-7---------------9--------------11-------------------------------|
B|-----------------------------------------------------------------|

   1-+-2-+-3-+-4-+-1-+-2-+-3-+-4-+-1-+-2-+-3-+-4-+-1-+-2-+-3-+-4-+-
G|-----------------------------------------------------------------|
D|-----------------------------------------------------------------|
A|-----------------------------------------------------------------|
E|-7---------------9-----------------------------------------------|
B|---------------------------------4-------------------------------|


Repeat Verse (1:47 to 2:37)


Repeat Chorus (2:37 to end)


=======================================================================   
Добавлено: 18.12.2017
Другие композиции этого автора:
Другие материалы по этой песне:
  • Аккорды и текст

Страница создана 18.12.2017
https://primanota.ru/lemolo/low-halo-chords.htm

Привет, гитарист!

Тебе подарок от сайта PrimaNota.ru

Забрать подарок
ВАМ ПОДАРКИ ОТ ПРОЕКТА
"ГИТАРНАЯ РЕВОЛЮЦИЯ"