Войти:  Facebook Google Twitter Vk Yandex Mail.ru
PrimaNota.ru - самый крупный в мире бесплатный архив песенных текстов, аккордов, табулатур и нот


League Of Legends - 2016 Season - Login Screen - табы, видео

Печатать
Просмотров: 61
Лучшая metal-группа Петербурга

2016 Season - Login Screen

  • аккорды и текст

e -------------------------------------------------------------------------------------------------------
h -------------------------------------------------------------------------------------------------------
g -------------------------------------------------------------------------------------------------------
d ----------------5----------7-----5-------------------------------------------7-------------------------
a ---5-7-8------8-------7-8----------------7-5---------------8-7-5------8-7-5----------------------------
e ---------------------------------------------8---------------------------------------------------------
_________________________________________________________________________________________________________
e -------------------------------------------------------------------------------------------------------
h -------------------------------------------------------------------------------------------------------
g -------------------------------------------------------------------------------------------------------
d ----------------5----------7--------------7------------------------------------7---------------------
a ---5-7-8------8-------7-8---------------8------------------8-7-5------8-7-5----------------------------
e -------------------------------------------------------------------------------------------------------
_________________________________________________________________________________________________________
e -------------------------------------------------------------------------------------------------------
h -------------------------------------------------------------------------------------------------------
g -------------------------------------------------------------------------------------------------------
d ----------------5----------7-----5-------------------------------------------7-------------------------
a ---5-7-8------8-------7-8----------------7-5---------------8-7-5------8-7-5----------------------------
e ---------------------------------------------8---------------------------------------------------------
_________________________________________________________________________________________________________
e -------------------------------------------------------------------------------------------------------
h -------------------------------------------------------------------------------------------------------
g -------------------------------------------------------------------------------------------------------
d ----------------5---------5----7-12--------------------8-7-5------------------------------------------
a ---5-7-8------8-------7-8-----------------------------------------8-7-5---8-7-------------------------
e -------------------------------------------------------------------------------------------------------
_________________________________________________________________________________________________________
e -------------------------------------------------------------------------------------------------------
h -------------------------------------------------------------------------------------------------------
g -------------------------------------------------------------------------------------------------------
d ------------------------5-7----------------------------------------------------------------------------
a ---8----7-8-8---7-8-8-------------------------------------8----7-8-8---7-8-8----5--------7-------------
e -------------------------------------------------------------------------------------------------------
_________________________________________________________________________________________________________
e -------------------------------------------------------------------------------------------------------
h -------------------------------------------------------------------------------------------------------
g -------------------------------------------------------------------------------------------------------
d ------------------------5-7----------------------------------------------------------------------------
a ---8----7-8-8---7-8-8-------------------------------------8----7-8-8---7-8-8-5-------------------------
e -------------------------------------------------------------------------------------------------------
_________________________________________________________________________________________________________
e -------------------------------------------------------------------------------------------------------
h -------------------------------------------------------------------------------------------------------
g -------------------------------------------------------------------------------------------------------
d --------------5-----7----5-----------------------------------------------------------------------------
a ---5-5-7-8--8---7-8---------------7--7-7-5----------------8-7-5-------8-7-5----------------------------
e -------------------------------------------8-----------------------------------------------------------
_________________________________________________________________________________________________________
e -------------------------------------------------------------------------------------------------------
h -------------------------------------------------------------------------------------------------------
g -------------------------------------------------------------------------------------------------------
d --------------5-----7----5-----------------------------------------------------------------------------
a ---5-5-7-8--8---7-8---------------7--7-7-5----------------8-7-5-------8-7-5----------------------------
e -------------------------------------------8-----------------------------------------------------------
_________________________________________________________________________________________________________
e -------------------------------------------------------------------------------------------------------
h -------------------------------------------------------------------------------------------------------
g -------------------------------------------------------------------------------------------------------
d --5--8-------------------------------------------------------------------------------------------------
a ----------------------------------------------------------8-7-5-------8-7-5----------------------------
e -------------------------------------------------------------------------------------------------------
_________________________________________________________________________________________________________
Добавлено: 17.12.2017
Другие композиции этого автора:
Другие материалы по этой песне:
  • Аккорды и текст

Страница создана 17.12.2017
https://primanota.ru/league-of-legends/2016-season-login-screen-chords.htm

Привет, гитарист!

Тебе подарок от сайта PrimaNota.ru

Забрать подарок
ВАМ ПОДАРКИ ОТ ПРОЕКТА
"ГИТАРНАЯ РЕВОЛЮЦИЯ"