Войти:  Facebook Google Twitter Vk Yandex Mail.ru
PrimaNota.ru - самый крупный в мире бесплатный архив песенных текстов, аккордов, табулатур и нот


Lavender Hill Express - Visions - бас-таба, видео

Печатать
Лучшая metal-группа Петербурга

Visions

  • аккорды и текст

Tabbed by: 6METAL6BASSIST6
E-mail: petergriffinav@gmail.com

Tuning: EADG

0:11

G|------------|
D|------------|
A|--------4---|
E|5---7-------|

G|----------------------------------------------------------------|
D|------------------------5---6---7-----------7-------7---5-------|
A|5-----------5-------5---------------------------------------7---|
E|----------------------------------------------------------------|

G|----------------------------------------------------------------|
D|------------------------2---3---4-----------4---4-------4-------|
A|2-----------2-------2-------------------------------4-----------|
E|----------------------------------------------------------------|

G|----------------------------------------------------------------|
D|5-----------5---5-------5-------4-----------4-----------5-------|
A|--------------------5-------------------------------------------|
E|----------------------------------------------------------------|

G|----------------------------------------------------------------|
D|7-----------7-------7-----------7-----------7-------7---7---7---|
A|------------------------7---7-----------------------------------|
E|----------------------------------------------------------------|

G|----------------------------------------------------------------|
D|----------------------------------------------------------------|
A|5---------------------------------------------------------------|
E|----------------------------------------------------------------|

G|----------------------------------------------------------------|
D|----------------------------------------------------------------|
A|------------------------------------------------------------4---|
E|----------------------------------------------------5---7-------|



G|----------------------------------------------------------------|
D|------------------------5---6---7-----------7-------7---5-------|
A|5-----------5-------5---------------------------------------7---|
E|----------------------------------------------------------------|

G|----------------------------------------------------------------|
D|------------------------2---3---4-----------4---4-------4-------|
A|2-----------2-------2-------------------------------4-----------|
E|----------------------------------------------------------------|

G|----------------------------------------------------------------|
D|5-----------5---5-------5-------4-----------4-----------5-------|
A|--------------------5-------------------------------------------|
E|----------------------------------------------------------------|

G|----------------------------------------------------------------|
D|7-----------7-------7-----------7-----------7-------7---5-------|
A|------------------------7---7-------------------------------7---|
E|----------------------------------------------------------------|

0:47

G|----------------------------------------------------------------|
D|----------------------------------------4-----------------------|
A|----2---5-------------------7-------5-----------------------5---|
E|3-----------5-------------------7-----------5-----------5-------|

G|----------------------------------------------------------------|
D|5-------9---9---7-------5---------------------------------------|
A|----------------------------7---5-----------5-------5---5-------|
E|------------------------------------------------------------5---|

G|----------------------------------------------------------------|
D|----------------------------------------4-----------------------|
A|----2---5-------------------7-------5-----------------------5---|
E|3-----------5-------------------7-----------5-------------------|

G|----------------------------------------------------------------|
D|5-------9---9---7-------5---------------------------------------|
A|----------------------------7---5-----------5-------5-----------|
E|--------------------------------------------------------5-------|

G|--------------------------------|
D|--------------------------------|
A|5-----------5---------------4---|
E|--------------------5---7-------|

1:04

G|----------------------------------------------------------------|
D|------------------------5---6---7-----------7-------7---5-------|
A|5-----------5-------5---------------------------------------7---|
E|----------------------------------------------------------------|

G|----------------------------------------------------------------|
D|------------------------2---3---4-----------4---4-------4-------|
A|2-----------2-------2-------------------------------4-----------|
E|----------------------------------------------------------------|

G|----------------------------------------------------------------|
D|5-----------5---5-------5-------4-----------4-----------5-------|
A|--------------------5-------------------------------------------|
E|----------------------------------------------------------------|

G|----------------------------------------------------------------|
D|7-----------7-------7-----------7-----------7-------7---5-------|
A|------------------------7---7-------------------------------7---|
E|----------------------------------------------------------------|

1:18

G|----------------------------------------------------------------|
D|----------------------------------------4-----------------------|
A|----2---5-------------------7-------5-----------------------5---|
E|3-----------5-------------------7-----------5-------------------|

G|----------------------------------------------------------------|
D|5-------9---9---7-------5---------------------------------------|
A|----------------------------7---5-----------5-------5---5-------|
E|------------------------------------------------------------5---|

G|----------------------------------------------------------------|
D|----------------------------------------4-----------------------|
A|----2---5-------------------7-------5-----------------------5---|
E|3-----------5-------------------7-----------5-------------------|

G|----------------------------------------------------------------|
D|5-------9---9---7-------5---------------------------------------|
A|----------------------------7---5-------------------------------|
E|----------------------------------------------------------------|

G|----------------------------------------------------------------|
D|----------------------------------------------------------------|
A|----------------------------------------------------------------|
E|----------------------------------------------------------------|

G|--------------------------------|
D|--------------------------------|
A|----------------------------4---|
E|--------------------5---7-------|

1:37


G|----------------------------------------------------------------|
D|------------------------5---6---7-----------7-------7---5-------|
A|5-----------5-------5---------------------------------------7---|
E|----------------------------------------------------------------|

G|----------------------------------------------------------------|
D|------------------------2---3---4-----------4---4-------4-------|
A|2-----------2-------2-------------------------------4-----------|
E|----------------------------------------------------------------|

G|----------------------------------------------------------------|
D|5-----------5---5-------5-------4-----------4-----------5-------|
A|--------------------5-------------------------------------------|
E|----------------------------------------------------------------|

G|----------------------------------------------------------------|
D|7-----------7---7-----------7---7-------7-------7---7---5-------|
A|------------------------------------7-------7---------------7---|
E|----------------------------------------------------------------|

1:53

G|----------------------------------------------------------------|
D|------------------------5---6---7-----------7-------7---5-------|
A|5-----------5-------5---------------------------------------7---|
E|----------------------------------------------------------------|

G|----------------------------------------------------------------|
D|------------------------2---3---4-----------4---4-------4-------|
A|2-----------2-------2-------------------------------4-----------|
E|----------------------------------------------------------------|

G|----------------------------------------------------------------|
D|5-------5-------5-------5-------4-------4---4---4-------5-------|
A|--------------------5-------------------------------------------|
E|----------------------------------------------------------------|

G|----------------------------------------------------------------|
D|7-----------7-------7-----------7-----------7-------7---5-------|
A|------------------------7---7-----------------------------------|
E|----------------------------------------------------------------|

G|----------------------------------------------------------------|
D|----------------------------------------------------------------|
A|5-----------5-------5-----------5-----------5-------5-----------|
E|------------------------5-------------------------------5-------|

G|--------------------------------|
D|--------------------------------|
A|5-------------------------------|
E|--------------------------------|   
Другие материалы по этой песне:
  • Аккорды и текст

https://primanota.ru/lavender-hill-express/visions-chords.htm

Привет, гитарист!

Тебе подарок от сайта PrimaNota.ru

Забрать подарок
ВАМ ПОДАРКИ ОТ ПРОЕКТА
"ГИТАРНАЯ РЕВОЛЮЦИЯ"