Войти:  Facebook Google Twitter Vk Yandex Mail.ru
PrimaNota.ru - самый крупный в мире бесплатный архив песенных текстов, аккордов, табулатур и нот


Las Pelotas - Astroboy - аккорды и текст, видео

Печатать
Просмотров: 88
Лучшая metal-группа Петербурга

Astroboy

  • аккорды и текст
Тональность: 
0
Проще! Аппликатуры

Astroboy
Las Pelotas
uthor/Artist: LAS PELOTAS
Title: Astroboy
Album: Mascaras de sal (1994)
Transcribed by: Ricardo González
Email: gaita@

INTRO:
   Em
e-|------------|-------------|----|-
B-|------------|-------------|----|-
G-|------------|-------------|----|-
D-|---5--------|-------------|-x4-|-
A-|-----7--5-7-|-5-7--7--5-7-|----|-
E-|-7----------|-------------|----|-
                                                                              

Em

Em
If you feel a heavy smoke
and the trash is around you
if you are lonely in the city
you think that you want it
I know that for something
your foot still walks away
and that you will arrive at a dark horizon

Em          D
If you need an animal
B             A       G             
call my name! call my name! 

If you need an animal
call my name! call my name! 


riff antes del solo:

e-|------------|-------------|----|-
B-|------------|-------------|----|-
G-|------------|-------------|----|-
D-|-----5------|-------------|-x4-|-
A-|---5---5--7-|-5-7--5-7--5-|----|-
E-|-7----------|-------------|----|-
Добавлено: 14.08.2014
Другие материалы по этой песне:
  • Аккорды и текст

Страница создана 14.08.2014
https://primanota.ru/las-pelotas/astroboy-chords.htm

Привет, гитарист!

Тебе подарок от сайта PrimaNota.ru

Забрать подарок
ВАМ ПОДАРКИ ОТ ПРОЕКТА
"ГИТАРНАЯ РЕВОЛЮЦИЯ"