Войти:  Facebook Google Twitter Vk Yandex Mail.ru
PrimaNota.ru - самый крупный в мире бесплатный архив песенных текстов, аккордов, табулатур и нот


Lars Winnerback - Över Gränsen - аккорды, текст, табы

Печатать
Лучшая metal-группа Петербурга

Över Gränsen

  • аккорды, текст
Тональность: 
0
Проще! Аппликатуры

Över Gränsen
Lars Winnerback
Över Gränsen
Lars Winnerbäck

Intro: Bm

Bm      A                 Bm
Blev så trött på den heta sommarn.
         A          Bm
trött på bilderna i stan'
Bm       A                Bm
trött på Olssons skor och Kvarnen
Bm       A                Bm
trött om natten, trött på dan'

G            D                 A          Bm
Trött på all valproganda, lika billig som reklam
            G7            F#         Bm
ja, vi vill ha ett bättre sverige. Åh fan!

Tagit mig ner till Köpenhamn
Hyr ett rum av en vänlig dam
Vandrar gatorna i timmar här
Äter frukost på altan'

Jag har varit tyst i tio dagar eller mer
jag tror jag slipar mina vapen, när ingen ser

Fläcktar den första svala vinden
i hennes vilda höstträdgård
Hjärter Dam, nu i september
börjar en annan typ av vår

Du skulle älska att ströva i parken här intill.
Där över gränsen får man vara när man vill.

Jag blev så trött på den heta sommarn'
trött på att aldrig stå pall
trött på clownerna i TV
trött på inget, trött på allt

Hjärter Dam, här får man krafterna igen
snart kan jag ta mig ut på isen, men inte än

e|------------------------------------------------|
B|------------------------------------------------|
G|------------------------------------------------|
D|-------------------------------4-4-2-2-0-2-4----|
A|-0h2-4-5--0h2-4h5p4-2-0-2-----------------------|
E|------------------------------------------------|

e|------------------------------------------------|
B|------------------------------------------------|
G|--4-2------2------------------------------------|
D|-------4-2---4-2-0------------------------------|
A|-----------------------2-1----1-2---------------|
E|-----------------------------2------------------|

Hjärter Dam, om skräpet hinner ikapp dig
Och drömmen flyr och vardagen gror
Om du letar efter tråden
Eller bara saknar en bror

Om du har halsen full med månader av slit
Ta din packning över gränsen och kom hit

e|------------------------------------------------|
B|------------------------------------------------|
G|-----------------4-2-------2--------------------|
D|------------4-5------4-2----4-2-0---------------|
A|----2-4-5---------------------------2-1----1-2--|
E|------------------------------------------2-----|

Ackorden av: invito   
https://primanota.ru/lars-winnerback/over-gransen-chords.htm

Привет, гитарист!

Тебе подарок от сайта PrimaNota.ru

Забрать подарок
ВАМ ПОДАРКИ ОТ ПРОЕКТА
"ГИТАРНАЯ РЕВОЛЮЦИЯ"