Войти:  Facebook Google Twitter Vk Yandex Mail.ru
PrimaNota.ru - самый крупный в мире бесплатный архив песенных текстов, аккордов, табулатур и нот


La Vida Boheme - El Buen Salvaje - аккорды и текст, видео

Печатать
Просмотров: 199
Лучшая metal-группа Петербурга

El Buen Salvaje

  • аккорды и текст
Тональность: 
0
Проще! Аппликатуры

El Buen Salvaje
La Vida Boheme
Intro (X4)

E:-----------------------------------------------------------------------|
B:-----------------------------------------------------------------------|
G:-----------------------------------------------------------------------|
D:-----------------------------------------------------------------------|
A:------------------2-------------------1-------------------2------------|
E:-----4----2---4---------4----2----4------4-----2------4------4----2/4--|

VERSO

        Ab5                           B5
No hay jabón para limpiarnos la boca, sin maldecir

        Ab5                        B5
Me encanta cuando vistes sin ropa, sin maldecir


PRE CORO

  E5                    C#5
Y no te entiendo, es que no te entiendo

      Ab5             B5
Muérdeme no entiendo, no te entiendo

      E5             C#5        Ab5             B5
No hay lobos, anda descalza y baila un poco aquí


CORO (X4)
E5     C#5    Ab5    B5


INTRO (X2)

VERSO

  E5                          C#5
Hablemos sin usar más la boca, sin maldecir
  E5                          C#5
Bailemos entre barro y rocas, sin maldecir

PRE CORO

CORO (X4)

FIN

Fondo Para el PRE CORO

E:------------------------------------------------------|
B:------------------------------------------------------|
G:------4~~~---4~~~~---------8~~~-----------------------|
D:---6----6--------9------------------------------------|
A:------------------------------------------------------|
E:------------------------------------------------------|

Bueno aqui tienen esta excelente pieza..gran banda Venezolana incluida en
el soundtrack del Juego FIFA 2012.
Добавлено: 21.09.2014
Другие материалы по этой песне:
  • Аккорды и текст

Страница создана 21.09.2014
https://primanota.ru/la-vida-boheme/el-buen-salvaje-chords.htm

Привет, гитарист!

Тебе подарок от сайта PrimaNota.ru

Забрать подарок
ВАМ ПОДАРКИ ОТ ПРОЕКТА
"ГИТАРНАЯ РЕВОЛЮЦИЯ"