Войти:  Facebook Google Twitter Vk Yandex Mail.ru
PrimaNota.ru - самый крупный в мире бесплатный архив песенных текстов, аккордов, табулатур и нот


Kygo - Sexual Healing - табы

Печатать
ViraMusic 2019 в Петербурге 4 апреля 2019! Скидка 10%!

Sexual Healing

  • аккорды, текст

-------------------------------------------------------------------------------
                         Kygo: Sexual Healing Remix Tab
-------------------------------------------------------------------------------
Tabbed by: Daniel Crawford

Tuning: Standard

First bit:
e|---------------------------------------------------------------------------|
B|---------------------------------------------------------------------------|
G|---------------------------------------------------------------------------|
D|----3----1--3----5----3--1---------1---------------------------------------|
A|------------------------------3-------3------------------------------------|
E|---------------------------------------------------------------------------|

Second bit:
e|---------------------------------------------------------------------------|
B|---------------------------------------------------------------------------|
G|---------------------------------------------------------------------------|
D|-------------1----1-------1----5----3--------------------------------------|
A|----3--1--3------------3---------------------------------------------------|
E|---------------------------------------------------------------------------|

First bit again:
e|---------------------------------------------------------------------------|
B|---------------------------------------------------------------------------|
G|---------------------------------------------------------------------------|
D|----3----1--3----5----3--1---------1---------------------------------------|
A|------------------------------3-------3------------------------------------|
E|---------------------------------------------------------------------------|

Slightly different second bit (Listen for the alternate rhythm in the first half of the riff)
e|---------------------------------------------------------------------------|
B|---------------------------------------------------------------------------|
G|---------------------------------------------------------------------------|
D|------------------1-------1----5----3--------------------------------------|
A|----3-----1--3---------3---------------------------------------------------|
E|---------------------------------------------------------------------------|


I got this by matching notes from midi and by ear, I'm pretty sure it's perfect.

Also personally I like sliding from 3 to 5 when you play 5 on the D string.
It doesn't do that in the song but it sounds nice on guitar.

If you want to play it higher:
 - Play all A string parts on the G string and add 2 frets
 - Play all D string parts on the B string and add 3 frets


************************************
   
https://primanota.ru/kygo/sexual-healing-chords.htm

Привет, гитарист!

Тебе подарок от сайта PrimaNota.ru

Забрать подарок
ВАМ ПОДАРКИ ОТ ПРОЕКТА
"ГИТАРНАЯ РЕВОЛЮЦИЯ"