Войти:  Facebook Google Twitter Vk Yandex Mail.ru
PrimaNota.ru - самый крупный в мире бесплатный архив песенных текстов, аккордов, табулатур и нот


Korey Dane - Let It Be Just For Fun - табы

Печатать
Лучшая metal-группа Петербурга

Let It Be Just For Fun

  • аккорды, текст

[Verse]

    H/F#                           D#7
e|------------------------------|--------------------------------|
B|-------0----------------------|-------4----4-4-4------4--4-----|
G|-------x----4h3----------3----|--6----6------6-6-6----6--6--6--|
D|--1----1---------4h5h6--------|--5----5------5---5----5-----5--|
A|--2---------------------------|--6---------------6----6-----6--|
E|--2---------------------------|--------------------------------|

    G#7                            C#m7
e|------------------------------|--------------------------0--0--|
B|-------4----4-----------4-----|--2-----------2-----------2--2--|
G|--5----5----5--------5--5--5--|--1-----1-----1-----------1--1--|
D|--4----4-------------4--4--4--|--2-----4-----2-----------2-----|
A|--6------------------6-----6--|--------------------------------|
E|--4------------------4-----4--|--------------------------------|


[Chorus]

    E          Esus4                 H
e|--------------------------------|-------------------------------|
B|-------0-----2------------------|-----4-----------4----4--------|
G|--1----------1------1-----------|--4--4-----4-----4----4--4--4--|
D|--2----------2-------------2----|--4--4-----4----------4--4--4--|
A|--2----------2------------------|--2--------2----------------2--|
E|--0----------0------------------|-------------------------------|

     C#7                             E9        H                   
e|--------------------------------|-----2-------------------------|
B|------0-----2-----0-------0--0--|--0--0-------------------------|
G|---1-----1--1-----1-------1--1--|--1--1------4---------4--4-----|
D|---3--------3-----3-------3-----|--2---------4---------4--4--4--|
A|---4--------4-----4-------4-----|--x---------2---------2-----2--|
E|--------------------------------|--0----------------------------|

     E9             H (Verse)
e|--------2-------------|
B|---0----0---------0---|
G|---1----1----1----4---|
D|---2---------2----4---|
A|---x---------x----2---|
E|---0---------0--------|


[Bridge]

    H                                C#           A9
e|--------------------------------|-------------------------------|
B|--------------------------------|--6----6--6----5---------5--5--|
G|--8------8----------------8-----|--6----6--6----6---------6--6--|
D|--9------9----------------9--9--|--6----6-------9------9--9-----|
A|--9------9-------------9--9--9--|--8------------7------7--------|
E|--7--------------------7-----7--|--9------------5------5--------|



************************************

| x  Dead note
| h  Hammer-on

************************************   
Другие материалы по этой песне:
  • Аккорды, текст

https://primanota.ru/korey-dane/let-it-be-just-for-fun-chords.htm

Привет, гитарист!

Тебе подарок от сайта PrimaNota.ru

Забрать подарок
ВАМ ПОДАРКИ ОТ ПРОЕКТА
"ГИТАРНАЯ РЕВОЛЮЦИЯ"