Войти:  Facebook Google Twitter Vk Yandex Mail.ru
PrimaNota.ru - самый крупный в мире бесплатный архив песенных текстов, аккордов, табулатур и нот


Koji Kondo - Mabe Village - таба, видео

Печатать
Просмотров: 128
Лучшая metal-группа Петербурга

Mabe Village

  • аккорды и текст

[Intro]

e|------------------------------------5---3-5-3------------------------------|
B|---------------------------------------------------------------------------|
G|-7--0--2---4-5-7-7-0-0-2---4-5-4-7------------7-5-4-2----------------------|
D|---------------------------------------------------------------------------|
A|---------------------------------------------------------------------------|
E|---------------------------------------------------------------------------|

e|---------------------------------------------------------------------------|
B|---------------------------------------------------------------------------|
G|-4-5-7-9--0-----2-9-7-7-----0---0-----0-4-2-0------------------------------|
D|-------------4----------4-4-------4-2---------1----------------------------|
A|---------------------------------------------------------------------------|
E|---------------------------------------------------------------------------|

e|-------------------------10-----10------10------10-------------------------|
B|---------------------------------------------------------------------------|
G|---------------------------------------------------------------------------|
D|-0-12-0-12-0-12-0-12--12-----12-----12------12-----------------------------|
A|---------------------------------------------------------------------------|
E|---------------------------------------------------------------------------|
Добавлено: 21.11.2017
Другие материалы по этой песне:
  • Аккорды и текст

Страница создана 21.11.2017
https://primanota.ru/koji-kondo/mabe-village-chords.htm

Привет, гитарист!

Тебе подарок от сайта PrimaNota.ru

Забрать подарок
ВАМ ПОДАРКИ ОТ ПРОЕКТА
"ГИТАРНАЯ РЕВОЛЮЦИЯ"