Войти:  Facebook Google Twitter Vk Yandex Mail.ru
PrimaNota.ru - самый крупный в мире бесплатный архив песенных текстов, аккордов, табулатур и нот


Kleerup ? - Requiem Solution - аккорды и текст, видео

Печатать
Просмотров: 66
Лучшая metal-группа Петербурга

Requiem Solution

  • аккорды и текст
Тональность: 
0
Проще! Аппликатуры

Requiem Solution
Kleerup ?
Capo 1.

(Piano) melody:

e|---------------------------------|---------------------------------|
B|-5---5---5---5---4---4---4---4---|-7---7---7---7---5---5---5---5---|
G|---------------------------------|---------------------------------| x2
D|---------------------------------|---------------------------------|
A|---------------------------------|---------------------------------|
E|---------------------------------|---------------------------------|

e|---------------------------------|---------------------------------|
B|-5---5---5---5---4---4---4---4---|-2---2---2---2---4---4---4---4---|
G|---------------------------------|---------------------------------|
D|---------------------------------|---------------------------------|
A|---------------------------------|---------------------------------|
E|---------------------------------|---------------------------------|

e|---------------------------------|---------------------------------|
B|-4---4---4---4---5---5---5---5---|-5---5---5---5---4---4---4---4---|
G|---------------------------------|---------------------------------|
D|---------------------------------|---------------------------------|
A|---------------------------------|---------------------------------|
E|---------------------------------|---------------------------------|

A way to combine chords with (piano) melody on guitar:

e|---------------------------------|---------------------------------|
B|-5---5---5---5---4---4---4---4---|-7---7---7---7---5---5---5---5---|
G|-6---6---6---6---6---6---6---6---|-6---6---6---6---6---6---6---6---|
D|---------------------------------|---------------------------------|
A|---4---4---4---4---4---4---4---4-|---4---4---4---4---4---4---4---4-|
E|---------------------------------|---------------------------------|
   C#m

e|---------------------------------|---------------------------------|
B|-5---5---5---5---4---4---4---4---|-7---7---7---7---5---5---5---5---|
G|-6---6---6---6---6---6---6---6---|-6---6---6---6---6---6---6---6---|
D|---------------------------------|---------------------------------|
A|---0---0---0---0---0---0---0---0-|---0---0---0---0---0---0---0---0-|
E|---------------------------------|---------------------------------|
   A

e|---------------------------------|---------------------------------|
B|-5---5---5---5---4---4---4---4---|-2---2---2---2---4---4---4---4---|
G|-4---4---4---4---4---4---4---4---|-----------------4---4---4---4---|
D|---------------------------------|-4---4---4---4-------------------|
A|---2---2---2---2---2---2---2---2-|---2---2---2---2---2---2---2---2-|
E|---------------------------------|---------------------------------|
   B

e|---------------------------------|---------------------------------|
B|-4---4---4---4---5---5---5---5---|-5---5---5---5---4---4---4---4---|
G|-2---2---2---2---2---2---2---2---|-4---4---4---4---4---4---4---4---|
D|---------------------------------|---------------------------------|
A|---0---0---0---0---0---0---0---0-|---2---2---2---2---2---2---2---2-|
E|---------------------------------|---------------------------------|
   A                                 B


ORDER: I V1 C INT V2 C O


[INTRO]
C#m | | A |   |
  B | | A | B |


[VERSE 1]
C#m
    The message is out, I watched you begin again

    Had it all figured out
A
    Now see what you got, from knocking on the wrong door
                        B
    You put yourself to rest down a river

    When you woke up, you were touched by an angel
A
    There was no one around,
                         B
    you look down on yourself from a window


[CHORUS]
C#m
    So you're down on your knees, begging for ends to meet
                A
    You went up, you went down, all around, but there's nothing to be found
                      B
    Am I gonna see you next autumn? And I'll be there when you're falling...
                 A                   B
    It's alright, no doubt, somehow, you will find your way...


[INTERLUDE]
C#m | | A |   |
  B | | A | B |


[VERSE 2]
C#m
    You're paying the price based on an ending

    See what you've done,
A
    you got nowhere to run, after knocking on heaven's door
                        B
    You lay yourself to rest down the river

    When you woke up, you were touched by an angel
A                                           B
    Nothing left to be found, nowhere to be safe - you've been here before


[CHORUS]
C#m
    So you're down on your knees, begging for ends to meet
                A
    You went up, you went down, all around, but there's nothing to be found
                      B
    Am I gonna see you next autumn? And I'll be there when you're falling...
                 A                   B
    It's alright, no doubt, somehow, you will find your way...


[OUTRO]
C#m | | A |   |
  B | | A | B |

C#m | | A | B (fade)
Добавлено: 22.06.2018
Другие материалы по этой песне:
  • Аккорды и текст

Страница создана 22.06.2018
https://primanota.ru/kleerup-/requiem-solution-chords.htm

Привет, гитарист!

Тебе подарок от сайта PrimaNota.ru

Забрать подарок
ВАМ ПОДАРКИ ОТ ПРОЕКТА
"ГИТАРНАЯ РЕВОЛЮЦИЯ"