» 
 » 
Glittery



Kacey Musgraves - Glittery - аккорды

Чайковский в рок-аранжировке! Очень необычно, послушай!
Тональность: 
0
Масштаб: 
100%
Прокрутка: 
0
Проще!
Аппликатуры
Нотный режим
Glittery
Kacey Musgraves
[ Предположительная тональность: C ]

Capo 4

B Gm B Gm


[Verse 1]
B
You shake me up and turn me upside down just like a snow globe
Bm
And every time you touch me I shiver right down to my toes
G
You've got a strange effect on me
Gm
You know you make me feel so

[Chorus]
G
Glittery
    F                               B
You light me up like starlight on a Christmas tree
Bm                          G
Every single kiss is like a gift to me
      F                            B      Gm
And I love the way you decorate my heart

[Verse 2]
B
Outside it's coming down but here inside, it's warming up so
Bm
And when you take your time you turn me on and make my life glow
G
You've got a strange effect on me
Gm          G
You make me feel so

[Chorus]
G
Glittery
    F                               B
You light me up like starlight on a Christmas tree
Bm                          G
Every single kiss is like a gift to me
      F                            B
And I love the way you decorate my heart

[Bridge]
Gm
Winter is so gray, it's like the ice is here to stay
                                      F                 B
But when you look at me, you know you melt it all away

[Instrumental]
F B F
e|---------------9----------------------9--------|
B|--11-9-12---11---11-9-12-11h12p11p9-9--11------|
G|-----------------------------------------------|
D|-----------------------------------------------|
A|-----------------------------------------------|
E|-----------------------------------------------|

[Chorus]
Cm                          F
Every single kiss is like a gift to me
      B                            F
And I love the way you decorate my heart
Cm     F
Oh, so glittery
B                                  F
And I love the way you decorate my heart

[Closing Solo]
e|---14-------14/16b17-18------------------------|
B|------12-15------------------------------------|
G|-----------------------------------------------|
D|-----------------------------------------------|
A|-----------------------------------------------|
E|-----------------------------------------------|

Kacey Musgraves - Glittery - ноты

(включить)
Другие композиции этого автора:
Другие материалы по этой песне:
  • Аккорды, текст

https://primanota.ru/kacey-musgraves/glittery-chords.htm