» 
 » 
Righteous



Juice WRLD - Righteous - аккорды

Чайковский в рок-аранжировке! Очень необычно, послушай!
Тональность: 
0
Масштаб: 
100%
Прокрутка: 
0
Проще!
Аппликатуры
Нотный режим
Righteous
Juice WRLD
[ Предположительная тональность: C ]

Juice WRLD - Righteous


Аккорды:
* Вступление, в припеве и в начале второго куплета
(до слов "I will see"): Fm;  F/G;  C;
(при желание можно добавить аккорд C в конце второго боя
на седьмую долю)

C                 F
↓ ↓ ↓ ↓↑ ↑↓ ↓ ↓↑

* В первом куплете,во втором куплете (после слов "I will see")
и в концовке: F;  C;  Fm;  F/G


1)Перебор *1 (играется в вступлении)

E|--------------------------|--------------------------|--|
B|-------1--------1---------|-------1--------1---------|--|
G|--------------------------|--------------------------|--|
D|--------------------------|--------------------------|--|
A|----------0--------0------|--------------------------|--|
E|--------------------------|--3-------3--------3------|--|

E|--------------------------|------0-------------------|--|
B|-------1-------1----------|------1-------------1-----|--|
G|--------------------------|------2-------------2-----|--|
D|--------------------------|--------------------2-----|--|
A|--------------------------|------3-------------0-----|--|
E|--1-------1-------1-------|--1-----------------------|--|


- Перебор *2 (играется в конце)

E|--------0--------0--------|--------0--------0--------|--|
B|-----1--------------1-----|-----1--------------1-----|--|
G|--------------------------|--------------------------|--|
D|--------------------------|--------------------------|--|
A|--3-------3------------3--|--------------------------|--|
E|--------------------------|--1-------1------------1--|--|

E|--------0--------0--------|--------0--------0--------|--|
B|-----1--------------------|-----1--------------1-----|--|
G|--------------------------|--------------------------|--|
D|--------------------------|--------------------------|--|
A|--0-------0------------0--|--------------------------|--|
E|--------------------------|--3-------3------------3--|--|

2)Бой: восьмерка поделенная на две части






Fm F/G C F

I will
I will
I will
Oh-ooh
Uh


[Припев]

Fm F/G
       All white Gucci suit,
                          C
I'm feeling righteous, yeah
C                    F
I know that the truth
                   Fm
Is hard to digest, yeah

F/G
Five or six pills
             C
In my right hand, yeah
C                F
Codeine runneth over
                 Fm
On my nightstand

            F/G
Takin' medicine
                             C
To fix all of the damage
C                          F
My anxiety the size
          Fm
Of a planet

F/G                            C
Holes in my skull, over time
C                  F
My heart's over ice (Woah)


[Куплет 1]

F
Over ice,
C
   I'm freezing
Fm
Beautiful eyes,
F/G
  Deceiving

F
We may die
C
   This evening
Fm
Coughing, wheezing,
F/G
   Bleeding

High, I'm an
Anxious soul
Blood moons are my
Eyes, stay low

Red and black,
They glow
Under attack,
In my soul

When it's my time,
I'll know
Never seen
A hell so cold

Yeah, we'll make it out,
I'll know
We'll run right through the flames,
Let's Go (Go)


[Припев]

Fm F/G
       All white Gucci suit,
                          C
I'm feeling righteous, yeah
C                    F
I know that the truth
                   Fm
Is hard to digest, yeah

F/G
Five or six pills
             C
In my right hand, yeah
C                F
Codeine runneth over
                 Fm
On my nightstand

            F/G
Takin' medicine
                             C
To fix all of the damage
C                          F
My anxiety the size
          Fm
Of a planet

F/G                            C
Holes in my skull, over time
C                  F
My heart's over ice (Woah)


[Куплет 2]

Fm F/G            C
       I'm in too deep
C                    C       F
Can't swim like me
Fm       F/G
We're drowning,
C         F
So I will see

   * меняются аккорды

F                               C
   My demons ten feet,
Fm         F/G
Under me
F
Inhale, exhale,
C
But I can't breathe

         Fm
Too busy

Drinking codeine
           F/G
Doin' high

Speeds

Crash, pour a four, sip
It slow, make the time pass
Take a pill for the thrill,
Have a relapse

Devil in my head
Tryna run gym laps
I ain't tryna race,
He don't even know me like that

[Припев]

Fm F/G
   All white Gucci suit,
                 C
I'm feeling righteous, yeah
C             F
I know that the truth
             Fm
Is hard to digest, yeah

F/G
Five or six pills
        C
In my right hand, yeah
C       F
Codeine runneth over
         Fm
On my nightstand

        F/G
Takin' medicine
                   C
To fix all of the damage
C               F
My anxiety the size
      Fm
Of a planet

F/G                 C
Holes in my skull, over time
C           F
My heart's over ice (Woah)

Juice WRLD - Righteous - ноты

(включить)
Другие композиции этого автора:
https://primanota.ru/juice-wrld/righteous.htm

Привет, гитарист!

Тебе подарок от сайта PrimaNota.ru

Забрать подарок
ВАМ ПОДАРКИ ОТ ПРОЕКТА
"ГИТАРНАЯ РЕВОЛЮЦИЯ"